Tablatura para Guitarra de Jesús Adrián Romero: Razones pa vivir
Conexión · Inscripción
Letras y Acordes
Pantalla Completa
Imprimir
Versión Texto
Añadir Favorito
Otras Versiones

Mostrar Diagramas
Desfile Automático
Manipular Acordes
Formato del Texto


Jesús Adrián Romero
Razones pa vivir(TAB)
calidad:
jaro1231
AUTOR: Jesús Adrian Romero. mike Rodriguez
ALBUM: Fue más Claro que la luna (2007)
Enviado por Angel, basado en Ivan
Modificado por Liraplayer (angelin_050@hotmail.com)

Tabs de la introduccion


e---4-----------4-------3---------3----------------
B--------------------------1---------1-------------
G-------5--5------5-----------3--------------------
D---3-------------------2--------------------------
A--------------------------------------------------
E--------------------------------------------------

e---4-----------4---------1-----------6--s8--s6----
B-------1--1-------1-------------------------------
G--------------------------------------------------
D---1----------------------------------------------
A-------------------------0------------------------
E--------------------------------------------------


me has dado tanto que no se
como expresar mi gratitud
por lo que has hecho tu por mi
me diste amor me diste paz
tomaste de tu plenitud
para llenarme de tu luz

mi corazon se a acostumbrado asi vivir
rodeado de tu bendicion en mi existir

coro

tengo Razones pa'vivir
tengo canciones pa escribir
tengo una voz y un corazon
tengo un camino pa seguir
tengo un amor pa compartir
tengo una voz y un corazon

me has inundado de tu amor
de tu ternura y comprensión
de tu cuidado y tu calor
cada mañana puedo ver
cuando respiro y miro el sol
que permaneces siempre fiel

mi corazon se a acostumbrado asi vivir
rodeado de tu bendicion en mi existir



Bien esta es mi transcripcion, espero que les guste.
Un saludo a todas las iglesia del MMM en Colombia
Este fichero es trabajo propio de su transcriptor y representa su interpretación personal de la canción. El material contenido en esta página es
para exclusivo uso privado, por lo que se prohibe su reproducción o retransmisión, así como su uso para fines comerciales.

© LaCuerda.net · Aviso Legal · Privacidad