Tablatura para Guitarra de Jesús Adrián Romero: No es como yo
Conexión · Inscripción
Letras y Acordes
Pantalla Completa
Imprimir
Versión Texto
Añadir Favorito
Otras Versiones

Mostrar Diagramas
Desfile Automático
Manipular Acordes
Formato del Texto

Jesús Adrián Romero
No es como yo(TAB)
calidad:
jaro0925
AUTOR: Jesus Adrian Romero
ALBUM: El aire de tu casa (2005)
Enviado por rolando
A mi gusto una de las mejores canciones que
Hay, ponle atención a la letra y medita un
Rato en lo que JESUS hizo por ti.
Escucha bien los tiempos y entradas de cada
Guitarra para que no te confundas.


Intro

Guit. I

E-----------------------------------------
B----10-9-10-12-12p10-9h10-9-9-10---------
G--9------------------------------9/11----
D-----------------------------------------

E-----------------------------------------
B--12-12p10-9h10-9-9-10-------------------
G-----------------------9/11-9h11/7/9-----
D-----------------------------------------

E-----------------------------------------
B-----10----------------------------------
G--9-9----9-7/9-7/6/7-6-4h6p4-2-2/4-------
D-----------------------------------------

Guit. II

   A(add2)  E/G#      F#m7(add4) E
E-----------------------------------------
B--------2---------5--------0----------0--
G------4---------4--------2----------1----
D----2---------2--------2----------2------
A--0--------------------------------------
E------------4--------2----------0--------

   D        C#m7       Bm7       A/C#
E--------2--------------------------------
B------3----------5----------3----------2-
G----2----------4----------2----------2---
D--0----------6----------0----------2-----
A-----------4----------2----------4-------
E-----------------------------------------

   Esus4          E
E----------0------------------------------
B--------0---0----------------------------
G------2-------2--1-----------------------
D----2------------------------------------
A-----------------------------------------
E--0--------------------------------------

Verso I
              A(add2)          E/G#
E----------------------------------------
B-------------------2----------------5---
G-----------------4----------------4-----
D---------------2----------------2-------
A-------------0--------------------------
E------------------------------4---------
  NO ES COMO YO    AUNQUE SE HAYA HECHO
         F#m7(add4)    E
E----------0------------------------------
B--------0-------------0------------------
G------2-------------1--------------------
D----2-------------2----------------------
A-----------------------------------------
E--2-------------0------------------------
   HOMBRE, Y LE LLAME POR SU

    D                      Bm7
E---------2-2-0h2p0-----------------------
B-------3-----------3---------------------
G-----2---------------2----------3--------
D---0--------------------------2----------
A----------------------------0------------
E--------------------------2--------------
   NOMBRE

         Esus4          E
E----------------0-----------------------
B--------------0---0---------------------
G------------2-------2--1----------------
D----------2------------2----------------
A-----------------------2----------------
E--------0-------------------------------
   NO ES COMO YO



              A(add2)          E/G#
E----------------------------------------
B-------------------2----------------5---
G-----------------4----------------4-----
D---------------2----------------2-------
A-------------0--------------------------
E------------------------------4---------
  NO ES COMO YO     AUNQUE EN TODO FUE





         F#m7(add4)    E
E------------0------------------------------
B----------0-------------0------------------
G--------2-------------1--------------------
D------2-------------2----------------------
A-----------------------------------------
E----2-------------0------------------------
 TENTADO    EL ES LIMPIO SIN

    D                      Bm7
E---------2-2-0h2p0-----------------------
B-------3-----------3---------------------
G-----2---------------2----------3--------
D---0--------------------------2----------
A----------------------------0------------
E--------------------------2--------------
 PECADO


           E              E/D
E----------0-----0-----0--0-----0----0-
B------------0-----0--------0-----0----
G--------------1-----1--------1-----1--
D-------------------------0------------
A--------------------------------------
E----------O---------------------------
NO ES COMO YO

   C#sus4    C#m7     Fº7
E-------------------------------------
B--7-----7---5-----5--1----1----------
G----4---------4--------1-------------
D------6---------6--------3-----------
A--4---------4------------------------
E---------------------3---------------
             LA     PUREZA Y

   C#/F    F#m         D/F#
E-------------------------------------
B--2----2--2-----2------3-----3-------
G----1-------2-----2------2-----2-----
D------3-------4-----4------0------0--
A-------------------------------------
E--1-------2------------2-------------
   SANTI---DAD SON SU COLOR DE PIEL

  E7sus4       E
E-------5-5-7/-4----------------------
B-----5-------------------------------
G---7-----6-7/-4----------------------
D-7-----------------------------------
A-------------------------------------
E-------------------------------------

Coro
            A(add2)    E/G#
E-------------------0----------------
B-----------------2--------5---------
G---------------4--------4-----------
D-------------2--------2-------------
A-----------0------------------------
E--------------------4---------------
NO ES COMO YO  EL ES SANTO Y ES

     F#m7(add4)  C#m7
E------------0---------4--------------
B----------0---------5----------------
G--------2---------4------------------
D------2------------------------------
A----------------4--------------------
E----2--------------------------------
        PERFECTO  ES SUBLIME Y ES
   D٨7            Bm7
E--------5--------------2-------------
B--7-------7---7--3-------3-----------
G----6-------6------2--------2--------
D------7--------------4---------------
A--5--------------2-------------------
E-------------------------------------
  ETERNO
           E        D        A/C#
E----------0-----0--2-----2-----------
B------------0--------3------2------2-
G--------------1--------2-------2-----
D-------------------0-------------2---
A----------------------------4--------
E----------0--------------------------
NO HAY COMPARACION


   E        A(add2)    E/G#
E-------------------0----------------
B--0-----0--------2----------5-------
G----1----------4----------4---------
D------2------2----------2-----------
A-----------0------------------------
E--0-------------------4-------------
NO ES COMO YO, EL TRASCIENDE


     C#/F       F#m        C#m7
E---------------------2-------4-----
B--------2----------2-------5-------
G------1----------2-------4---------
D----3------------------------------
A---------------4-------4-----------
E--1----------2---------------------
 LO  QUE EXISTE  Y DE MAJESTAD SE

   D٨7            Badd2/D#
E--------5--------------------------
B--7-------7---7--7-----7-----------
G----6-------6------6---------------
D------7----------9---9-------------
A--5--------------------------------
E-----------------------------------
   VISTE

              E7sus4       E
E---------------------5-7/-4-------
B-----------------5----------------
G---------------7-----6-7/-4-------
D-------------7--------------------
A----------------------------------
E----------------------------------
  NO HAY COMPARACION




Verso II (misma secuencia)
NO ES COMO YO
AUNQUE SE HAYA HECHO CARNE
Y MI HERMANO EL SE LLAME
NO ES COMO YO
NO ES COMO YO
EN EL CIELO ESTA SU TRONO
SU PODER LO LLENA TODO
NO ES COMO YO
LA CREACION TODA RODILLA SE DOBLARA
A SUS PIES

CORO

SOLO

  Guit. I
E-------------------------------------
B-------------------------------------
G--9/11-11v-11v-9-8h9p8-8-8/9---------
D-------------------------------------
A-------------------------------------
E-------------------------------------

E--------------------------------------
B--------------------------------------
G--9v-9v-9v-7-6h7p7-6-6/7-7/9-9/11-----
D--------------------------------------
A--------------------------------------
E--------------------------------------

E-------------------------------------
B-------------------------------------
G-------------------7-6h7p6-----------
D--9/11-7h9p7-9-7-7----------9-7-7----
A-------------------------------------
E-------------------------------------

E-------------------------------------
B-------------------------------------
G-------------------------------------
D--9h10-9-11h12-11--------------------
A-------------------------------------
E-------------------------------------

  Guit. II

   D٨7      C#m7    E/G#     E  D
E----------------------------0--2----
B--7-----7--------5-------5--0--3----
G----6----------4-------4----1--2----
D------7------6-------2------2--0----
A-----------4----------------2-------
E-------------------4--------0-------

   Bm7    E  D  A/C#  E  Esus4
E---------O--2--------0--0-----------
B--3------O--3--2-----0--0-----------
G----2----1--2--2-----1--2-----------
D------0--2--0--2-----2--2-----------
A--2------2-----4-----2--2-----------
E---------O-----------0--0-----------

                A/C#     E
E-----------------------------------------
B--3-2h3p2------2-----2--0-----0----------
G----------4-2----2--------1--------------
D-------------------2--------2------------
A---------------4-------------------------
E------------------------0----------------



Coro

Final

Guit. I
E-----------------------------------------
B----10-9-10-12-12p10-9h10-9-9-10---------
G--9------------------------------9/11----
D-----------------------------------------

E-----------------------------------------
B--12-12p10-9h10-9-9-10-------------------
G-----------------------9/11-9h11/7/9-----
D-----------------------------------------

E-----------------------------------------
B-----10----------------------------------
G--9-9----9-7/9-7/6/7-6-7h9p7-9-7-7-------
D-----------------------------------------

Guit. II

   A(add2)  E/G#      F#m7(add4) E
E-----------------------------------------
B--------2---------5--------0----------0--
G------4---------4--------2----------1----
D----2---------2--------2----------2------
A--0--------------------------------------
E------------4--------2----------0--------

   D        C#m7       Bm7
E--------2--------------------------------
B------3----------5----------3------------
G----2----------4----------2--------------
D--0----------6----------0----------------
A-----------4----------2------------------
E-----------------------------------------

   A/C#  E   Esus4
E--------0---0----------------------------
B--2-----0---0----------------------------
G--2-----1---2----------------------------
D--2-----2---2----------------------------
A--4-----2---2----------------------------
E--------0---0----------------------------

Esa es toda la canción costo un poquito
Sacarla pero hay la tienen, espero les
Guste cualquier duda o sugerencia pueden
Hacérmela saber, Dios les bendiga.
Saludes al ministerio musical de la iglesia
El buen pastor, Tegucigalpa, Honduras.
Envía el tono de "No es como yo" a tu celular/móvil
Este fichero es trabajo propio de su transcriptor y representa su interpretación personal de la canción. El material contenido en esta página es
para exclusivo uso privado, por lo que se prohibe su reproducción o retransmisión, así como su uso para fines comerciales.
© LaCuerda.net · Aviso Legal · Privacidad