Tablatura para Guitarra de Jesús Adrián Romero: Luces de colores
Conexión · Inscripción
Letras y Acordes
Pantalla Completa
Imprimir
Versión Texto
Añadir Favorito
Otras Versiones

Mostrar Diagramas
Desfile Automático
Manipular Acordes
Formato del Texto


Jesús Adrián Romero
Luces de colores(TAB)
calidad:
jaro2022
AUTOR: Jesús Adrian Romero ft. Melissa
ALBUM: Sencillo / Single (2012)
Enviado por Reinaldo
=D es mi primera tablatura.
está fácil solo presten atención a la canción para que vean donde
y a que velocidad van =D

espero que les sirva de Guía.
zamRM


0:09-0:14  y se repita en 0:47-0:53


e ---------------8-----------------------|
B -------8-11-11---11-8------------------|
G --8-10----------------10-8----8-8-7s8--|
D -8-------------------------10----------|
A ---------------------------------------|
E ---------------------------------------|


1.48 - 1.53

e ---------------8----------------------------------|
B ---4-6-8-11-11---11-8-6---4-6-8-8s9-8-6-4-4-------|
G -3------------------------------------------------|
D --------------------------------------------------|
A --------------------------------------------------|
E --------------------------------------------------|

s = slide
Este fichero es trabajo propio de su transcriptor y representa su interpretación personal de la canción. El material contenido en esta página es
para exclusivo uso privado, por lo que se prohibe su reproducción o retransmisión, así como su uso para fines comerciales.

© LaCuerda.net · Aviso Legal · Privacidad