Tablatura para Guitarra de Jarabe de Palo: Depende
Conexión · Inscripción
Letras y Acordes
Pantalla Completa
Imprimir
Versión Texto
Añadir Favorito
Otras Versiones

Mostrar Diagramas
Desfile Automático
Manipular Acordes
Formato del Texto

Jarabe de Palo
Depende(TAB)
calidad:
jarp0065
AUTOR: Jarabe de Palo
ALBUM: Depende (1998)
Enviado por José
instrucciones:
0h2  hammer on
Todos los versos se tocan 
igual (escucha la cancion para el ritmo)

Acordes:

   C   Dm  E   Em  F   G   Am
|--0---1---0---0---1---3---0--|
|--1---3---0---0---1---3---1--|
|--0---2---1---0---2---4---2--|
|--2---0---2---2---3---5---2--|
|--3---0---2---2---3---5---0--|
|--0---X---0---0---1---3---X--|

Intro y verso 1:
|-----------------------------|-----------------------------|
|-----1-------1-------------1-|-----1-------1---------------|
|---0-------0---0---0-----0---|---0-------0---0---0-----0---|
|-------0h2-------2---0h2-----|-------0h2-------2---0h2-----|
|-3---------------------------|-3---------------------------|
|-----------------------------|-----------------------------|

|-----------------------------|-----------------------------|
|-----1-------1-------------1-|-----1-------1---------------|
|---0-------0---0---0-----0---|---0-------0---0---0-----0---|
|-------0h2-------2---0h2-----|-------0h2-------2---0h2-----|
|-3---------------------------|-3---------------------------|
|-----------------------------|-----------------------------|
       Y que el blanco sea blanco      y el negro sea negro
|-----------------------------|-----------------------------|
|-----1-------1-------------1-|-----1-------1-------------1-|
|---0-------0---0---0-----0---|---0-------0---0---0-----0---|
|-------0h2-------2---0h2-----|-------0h2-------2---0h2-----|
|-3---------------------------|-3---------------------------|
|-----------------------------|-----------------------------|
     uno y uno sean dos          porque exactos son los 

|-------------0---------------|-------------0---------------|
|-------0h1-----1-----0h1---1-|-------0h1-----1-----0h1---1-|
|-----2-------------2---------|-----2-------------2---------|
|---2-------2-----2-------2---|---2-------2-----2-------2---|
|-0---------------------------|-0---------------------------|
|-----------------------------|-----------------------------|
 numeros,                Depende,

Verso 2 (se toca igual)
Que aquí estamos de prestao, que hoy el cielo esta nublao,
que uno nace y luego muere y este cuento se ha acabao... Depende

Coro:

   F               C           Am                      E
Depende, de qué depende, de según como se mire todo depende.
   F               Am          G                       G  F Em Dm C 
Depende, de qué depende, de según como se mire todo depende-ee-ee-ee.

Verso 3
Que bonito es el amor, más que nunca en primavera,
que mañana sale el sol, que estamos en Agosto...  depende.
Que con el paso del tiempo, el vino se hace bueno
que to'lo que sube baja, de abajo arriba y de arriba abajo... depende.

Coro.
Depende, de qué depende, de según como se mire todo depende.
Depende, de qué depende, de según como se mire todo depende-ee-ee-ee.

Verso 4
Que no has conocido a nadie, que te bese como yo,
que no hay otro hombre en tu vida que de tí se beneficie... Depende.
Que si quieres decir sí, cada vez que abres la boca,
que te hace muy feliz, que sea el día de tu boda... Depende.

Coro.
Depende, de qué depende, de según como se mire todo depende.
Depende, de qué depende, de según como se mire todo depende-ee-ee-ee.

(solo)

Coro.
Depende, de qué depende, de según como se mire todo depende.
Depende, de qué depende, de según como se mire todo depende-ee-ee-ee.
Depende, de qué depende, de según como se mire todo depende.
Depende, de qué depende, de según como se mire todo depende-ee-ee-ee.


Ahi esta, dudas, quejas, sugerencias, dinero, a mi mail:

pepelusote@hotmail.com
Este fichero es trabajo propio de su transcriptor y representa su interpretación personal de la canción. El material contenido en esta página es
para exclusivo uso privado, por lo que se prohibe su reproducción o retransmisión, así como su uso para fines comerciales.
© LaCuerda.net · Aviso Legal · Privacidad