Letra y Acordes de Jaci Velasquez: De Creer En Ti
Conexión · Inscripción
Letras y Acordes
Pantalla Completa
Imprimir
Versión Texto
Añadir Favorito
Otras Versiones

Mostrar Diagramas
Desfile Automático
Manipular Acordes
Formato del Texto

Jaci Velasquez
De Creer En Ti
calidad:
jvel0013
AUTOR: Nicole Coleman-Mullen, David Mullen, Michael Ochs
ALBUM: Llegar a Ti (1999)
Enviado por Daniel
Para tocar esta cancion necesitas poner un capo en el 2do traste
de tu guitarra
las pociciones aparecen mas abajo
espero les sirva...Bendiciones

INTRODUCCION

  (Capo 2do traste)

            Amaj7            F#m9                    D(add9)
E||-----------------------|------------------------|-----0----------------|
B||-----------3--L--------|-----------3--L------3--|--3-------1--------1--|
G||--------0--------------|--------0---------------|----------------------|
D||-----4-----------------|-----4------------------|----------------------|
A||-----------------------|------------------------|--3-------------------|
E||--3--------------------|--0---------------------|----------------------|

F#m      G#m/5-
------------------------||
--0-------1------0--0---||
-------2--2------------*||
-----------------------*||
------------------------||
--0-------2-------------||




Amaj7         F#m9
  Puede ser   que tal vez

    D(add9)       F#m        G#m/5-
  Mañana el sol no vuelva a aparecer

Amaj7         F#m9
  Puede ser   que quizás

    D(add9)       F#m        G#m/5-
  Lo que yo fui lo puedan olvidar

F#m7        C#m7      D    Bm7     E
  Pero yo no perderé la fe, ni dejaré

Coro:

D       E/G#  F#m7     D      E/G#  A
  De creer en Ti,       de creer en Ti

D      E/G#   A               B/D#
  De rodillas frente a Ti, voy a vivir

     Bm7     C#m7   D     E             Amaj7
  Yo sé que jamás dejaré  de creer en Ti



 (Igual)
  Puede ser   que el dolor
  Un día se convierta en amor
  Puede ser   que al final, en vez de angustia

  Todo sea paz
  Cuando venza el bien a la maldad, ¿Quién dejará?


              Amaj7
       3   4    5    6    7
E-|x|----|----|----|----|----|
B-| |----|----|-◙--|----|----|
G-|0|----|----|----|----|----|
D-| |----|----|----|-◙--|----|
A-| |----|----|----|----|----|
E-|0|----|----|-◙--|----|----|


              F#m9
       3   4    5    6    7
E-|0|----|----|----|----|----|
B-| |----|----|-◙--|----|----|
G-|0|----|----|----|----|----|
D-| |----|----|----|-◙--|----|
A-| |----|----|----|----|----|
E-|0|----|----|----|----|----|


              D(add9)
       3   4    5    6    7
E-|0|----|----|----|----|----|
B-| |----|----|-◙--|----|----|
G-|0|----|----|----|----|----|
D-| |----|-◙--|----|----|----|
A-| |----|----|-◙--|----|----|
E-|0|----|----|----|----|----|

              F#m
       3   4    5    6    7
E-|0|----|----|----|----|----|
B-|0|----|----|----|----|----|
G-|0|----|----|----|----|----|
D-| |----|-◙--|----|----|----|
A-| |----|-◙--|----|----|----|
E-|0|----|----|----|----|----|

              G#m/5-
       3   4    5    6    7
E-|0|----|----|----|----|----|
B-| |-◙--|----|----|----|----|
G-| |----|-◙--|----|----|----|
D-|X|----|----|----|----|----|
A-|X|----|----|----|----|----|
E-| |----|-◙--|----|----|----|



              F#m7
       3   4    5    6    7
E-|0|----|----|----|----|----|
B-| |----|----|-◙--|----|----|
G-|0|----|----|----|----|----|
D-| |----|-◙--|----|----|----|
A-| |----|-◙--|----|----|----|
E-|0|----|----|----|----|----|


              C#m7
       3   4    5    6    7
E-| |----|-◙--|----|----|----|
B-| |----|-◙--|-◙--|----|----|
G-| |----|-◙--|----|----|----|
D-| |----|-◙--|----|-◙--|----|
A-| |----|-◙--|----|----|----|
E-|X|----|----|----|----|----|


              Bm7
       3   4    5    6    7
E-|0|----|----|----|----|----|
B-| |-◙--|----|----|----|----|
G-|0|----|----|----|----|----|
D-| |----|-◙--|----|----|----|
A-|0|----|----|----|----|----|
E-| |----|----|----|----|----|

              D
       3   4    5    6    7
E-|0|----|----|----|----|----|
B-| |-◙--|----|----|----|----|
G-|0|----|----|----|----|----|
D-| |----|-◙--|----|----|----|
A-| |----|----|-◙--|----|----|
E-| |----|----|----|----|----|

              E
       3   4    5    6    7
E-| |----|-◙--|----|----|----|
B-| |----|----|-◙--|----|----|
G-| |----|-◙--|----|----|----|
D-|0|----|----|----|----|----|
A-| |----|----|----|----|----|
E-| |----|----|----|----|----|

              E/G#

       3   4    5    6    7
E-| |----|-◙--|----|----|----|
B-| |----|----|-◙--|----|----|
G-| |----|-◙--|----|----|----|
D-| |----|----|----|----|----|
A-| |----|----|----|----|----|
E-| |----|-◙--|----|----|----|

              B/D#
       3   4    5    6    7
E-|0|----|----|----|----|----|
B-|0|----|----|----|----|----|
G-| |----|-◙--|----|----|----|
D-| |----|-◙--|----|----|----|
A-| |----|----|----|-◙--|----|
E-|X|----|----|----|----|----|


cualquier duda o comentario escriban
a mi correo adanniguitarr@hotmail.com
Envía el tono de "De Creer En Ti" a tu celular/móvil
Este fichero es trabajo propio de su transcriptor y representa su interpretación personal de la canción. El material contenido en esta página es
para exclusivo uso privado, por lo que se prohibe su reproducción o retransmisión, así como su uso para fines comerciales.
© LaCuerda.net · Aviso Legal · Privacidad