Tablatura para Bajo de Intocable: Fuerte no soy
Conexión · Inscripción
Letras y Acordes
Pantalla Completa
Imprimir
Versión Texto
Añadir Favorito
Otras Versiones

Mostrar Diagramas
Desfile Automático
Formato del Texto

Intocable
Fuerte no soy(BAJ)
calidad:
into0185
AUTOR: Ricardo J. Muñoz, Marco A. Pérez
ALBUM: 14 Grandes Exitos
Enviado por salazar
INTRO

   D       D7Maj   Bm          A
e|-7---6^7^6-----6/4------4/(2)*
A|-----------------------------0#--5-0

*se desliza como si se fuera a llevar desde el traste 4 al 2 pero
antes de llegar se toca al aire en la cuerda de La;
# no se exactamente cuantas veces sea al aire(la cuerda de La),por
que no me voy a poner a contarlas pero escuchen la cancion y ahi le
calculan.
-------------------------------------------------------------------
primero puse los tonos de la armonia, abajo las pisadas del bajo
y abajo la letra
--------------------------------------------------------------------------
(comienzas atocar la primera nota aprox. en el segundo #18 de la cancion)

     D
G|-2/7
     me dices que te vas
        Dmaj7                            Bm
G|-----14^15^14-------12^11^1212^11/9/7/6/4
por que ya no soportas tu amarga soledad
          G                       A7
G|--------0------------------6^7^6
que ya no soy tan romantico como cuando
                     D
G|------7--9---------11
te empece  a conquistar
                F#7
G|---------------------------------3/4-
D|-7/-----------4----------------------
    que me olvide de los peuqeños detalles
                  Bm
G|---------4----6-7-6-4-/2
  que te hacian vibrar
          G                   Em
G|--------0----------------------
D|-------------------------0/2/3-
que me rodea una armadura de acero
                   A7
G|--------6^7^6----2/4-2
 dificil de penetrar

se que en verdad.........

no quise poner las demas pisadas cuando siguen cantando,
por que es seguir el ritmo con los acordes y cada quien tiene
su propio estilo para acompañar con el bajo, y hasta yo lo sigo
diferente y meto mis propios arreglos...
---------------------------------------------------------------







esta es la parte del medio y del final:

en cada parte se repite dos veces,menos en la ultima parte,solo
puse la primera secuencia en Bm;pero en A y Em es igual.

   Bm                      A            Em             A G   F#7 Em
D|--------7-7--------7-7-|--------5-5-|-------2-0-0-2|------5-----|
A|-------9-9-9------9-9-9|-------7-7-7|----------2---|-----5------|
E|-7--7-7-----7--7-7-----|-5--5-5-----|-0--0-0-------|-5--3---2--0|
                           dos veces      dos veces

se repite todo igual...

Saludos a *STILO NORTEÑO* y URENDA
Envía el tono de "Fuerte no soy" a tu celular/móvil
Este fichero es trabajo propio de su transcriptor y representa su interpretación personal de la canción. El material contenido en esta página es
para exclusivo uso privado, por lo que se prohibe su reproducción o retransmisión, así como su uso para fines comerciales.
© LaCuerda.net · Aviso Legal · Privacidad