Tablatura para Guitarra de Il Volo: Más que amor
Conexión · Inscripción
Letras y Acordes
Pantalla Completa
Imprimir
Versión Texto
Añadir Favorito
Otras Versiones

Mostrar Diagramas
Desfile Automático
Manipular Acordes
Formato del Texto

Il Volo
Más que amor(TAB)
calidad:
ivlx0072
AUTOR: Il Volo
ALBUM: Más que amor (2013)
Enviado por Kevin
Tablatura de la melodía de la canción.

ESTROFAS I:

GIANLUCA
Eres el mas bello amanecer
Pintas en mi rostro una sonrisa
al volverte a ver

E|---------------------|-----------------------|-----------|
B|-1-0-----------------|-----------------------|-----------|
G|-----2-0-------------|---------0-0-0-0-2-0---|-----------|
D|---------2-0-----0-2-|---2-2---------------0-|-----------|
A|-------------3-3-----|-3-----3---------------|-2-2-3-2-0-|
e|---------------------|-----------------------|-----------|

Como lluvia en el desierto
te impregnaste en mi
El mundo cambio desde el momento
en que te conocí

E|-----------------|-----------|---------------------|-------------|
B|---0-1-0---------|-----------|---------------------|-----0-1-0---|
G|-2-------2-0-----|-------0---|---------0-0-0-2-0---|-2-2-------2-|
D|-------------2-0-|---0-0---2-|---0-2-------------0-|-------------|
A|-----------------|-3---------|-3-----3-------------|-------------|
e|-----------------|-----------|---------------------|-------------|


PRE-CORO:

IGNAZIO
Somos cuerpo y alma
par de gotas de agua
tu y yo
Mas que amor

E|-------------|---------------3-|-------|-----------|
B|---3-5-5-5---|---3-5-5-5-s-1---|-6-5-3-|-6-5-------|
G|-5---------5-|-5---------------|-------|-----5-s-2-|
D|-------------|-----------------|-------|-----------|
A|-------------|-----------------|-------|-----------|
e|-------------|-----------------|-------|-----------|

Somos noche y luna
como mar y espuma
tu y yo
Mas que amor

E|-------------|---------------3-|-------|-----------|
B|---3-5-5-5---|---3-5-5-5-s-1---|-6-5-3-|-6-5-------|
G|-5---------5-|-5---------------|-------|-----5-s-2-|
D|-------------|-----------------|-------|-----------|
A|-------------|-----------------|-------|-----------|
e|-------------|-----------------|-------|-----------|


CORO:

PIERO
je t'aime mi amor
io ti amo we are love
adoro te
Todo el mundo es amor

E|---------|-----------------------|
B|-----1-3-|---3-s-5---------------|
G|---0-----|-5-------5--5-4-5-s-2v-|
D|-2-------|-----------------------|
A|---------|-----------------------|
e|---------|-----------------------|

E|-----0---|-2-s-3-3-3---1----------|
B|-------3-|-----------1---5-5v-s-1-|
G|---0-----|------------------------|
D|-2-------|------------------------|
A|---------|------------------------|
e|---------|------------------------|


ESTROFAS II:

GIANLUCA
Mírame a los ojos
corazón
Dime que lo nuestro no es un sueño
que esto es mas que amor

E|---------------------|-----------------------|-----------|
B|-1-0-----------------|-----------------------|-----------|
G|-----2-0---------0---|---------0-0-0-0-2-0---|-----------|
D|---------2-0-------2-|---2-2---------------0-|-----------|
A|---------------3-----|-3-----3---------------|-2-2-3-2-0-|
e|---------------------|-----------------------|-----------|

Luego besame despacio
entre la oscuridad
Quiero derretir entre tus brazos
a esta soledad

E|-----------------|-------------|---------------------|-----------|
B|---0-1-0---------|-------------|---------------------|---0-1-3---|
G|-2-------2-0-----|---------0---|---------0-0-0-2-0---|-2-------2-|
D|-------------2-0-|-----0-2---2-|---0-2-------------0-|-----------|
A|-----------------|-3-3---------|-3-----3-------------|-----------|
e|-----------------|-------------|---------------------|-----------|


PRE-CORO:

IGNAZIO
Somos cuerpo y alma
par de gotas de agua
tu y yo
Mas que amor

E|-------------|---------------3-|-------|-----------|
B|---3-5-5-5---|---3-5-5-5-s-1---|-6-5-3-|-6-5-------|
G|-5---------5-|-5---------------|-------|-----5-s-2-|
D|-------------|-----------------|-------|-----------|
A|-------------|-----------------|-------|-----------|
e|-------------|-----------------|-------|-----------|

Somos noche y luna
como mar y espuma
tu y yo
Mas que amor... ooooor...

E|-------------|---------------3-|-------|------------------------|
B|---3-5-5-5---|---3-5-5-5-s-1---|-6-5-3-|-6-5---------------3-5v-|
G|-5---------5-|-5---------------|-------|-----5-s-2v--2-4-5------|
D|-------------|-----------------|-------|------------------------|
A|-------------|-----------------|-------|------------------------|
e|-------------|-----------------|-------|------------------------|

CORO:

PIERO
je t'aime mi amor
io ti amo we are love
adoro te
Todo el mundo es amor

E|---------|-----------------------|
B|-----1-3-|---3-s-5---------------|
G|---0-----|-5-------5--5-4-5-s-2v-|
D|-2-------|-----------------------|
A|---------|-----------------------|
e|---------|-----------------------|

E|-----0---|-2-s-3-5-3---1------|
B|-------3-|-----------1---5-5v-|
G|---0-----|--------------------|
D|-2-------|--------------------|
A|---------|--------------------|
e|---------|--------------------|


INTERMEDIO:

IGNAZIO
Pon tu mano entre la mía y veras
Que en la distancia siempre saldrá el sol
PIERO
Mas que amor

E|----------------------3-1-0-5-3-1-0-1-3-3v-|--------------------|
B|-1-0-1-0-1-3-s-5v-3-5----------------------|---0-1-s-3-5-6-s-8v-|
G|-------------------------------------------|-2------------------|
D|-------------------------------------------|--------------------|
A|-------------------------------------------|--------------------|
e|-------------------------------------------|--------------------|


CORO:

PIERO
Je t'aime mi amor
io ti amo
we are love (we are love)
adoro te
Todo el mundo es amor

E|---------|-----------------------|
B|-----1-3-|---3-s-5---------------|
G|---0-----|-5-------5--5-4-5-s-2v-|
D|-2-------|-----------------------|
A|---------|-----------------------|
e|---------|-----------------------|

E|-----0-3-|-2-s-3-5-3---1-1-3v-|
B|---------|-----------1--------|
G|---0-----|--------------------|
D|-2-------|--------------------|
A|---------|--------------------|
e|---------|--------------------|


Je t'aime mi amor
io ti amo
we are love (we are love )
adoro te
Todo el mundo es amor

E|---------|-----------------------|
B|-----1-3-|---3-s-5---------------|
G|---0-----|-5-------5--5-4-5-s-2v-|
D|-2-------|-----------------------|
A|---------|-----------------------|
e|---------|-----------------------|

E|-----0-3-|-2-s-3-5-3---1-0------------|
B|---------|-----------1-----5v-s-3-s-1-|
G|---0-----|----------------------------|
D|-2-------|----------------------------|
A|---------|----------------------------|
e|---------|----------------------------|

GIANLUCA
Es nuestro mundo
Demos amor
Este fichero es trabajo propio de su transcriptor y representa su interpretación personal de la canción. El material contenido en esta página es
para exclusivo uso privado, por lo que se prohibe su reproducción o retransmisión, así como su uso para fines comerciales.
© LaCuerda.net · Aviso Legal · Privacidad