Tablatura para Guitarra de Los Huayra: Mi estrella predilecta
Conexión · Inscripción
Letras y Acordes
Pantalla Completa
Imprimir
Versión Texto
Añadir Favorito
Otras Versiones

Mostrar Diagramas
Desfile Automático
Manipular Acordes
Formato del Texto

Los Huayra
Mi estrella predilecta(TAB)
calidad:
huay0013
AUTOR: Los Huayra  corregir
ALBUM: Los Huayra (2005)
Enviado por Eduardo, basado en GONZALO
Este es 1 de los temas más conocidos de este gran grupo salteño!!!
Grande los huayra!!! Espero les guste mi transcripcion.. :D

                     E
Si tu quieres que te cante
            D
como cantan los amantes
                 A
bajo el claro de la luna...
                    E
Si prefieres que te diga
                    D
que eres dueña de mi vida
     E          A
bajo cielo, mar o tierra...
     A7             D
Te dire lo que tu quieras,

MI belleza, MI princesa,
     E         A
y mi estrella predilecta,
                    E
siempre y cuando me regales
                    D
La esmeralda de tus ojos
      E             A
y el filon de tus caderas.

                   E       D
Y me des la propiedad
               A
de toditas tus pasiones
      A   F         Bm
tus secretos y algo mas
 A7               E
que me quieras entregar,
              A
para unir dos corazones.

----9-8-9-----7h9h7-5-4/7--7h9h7-6/7-6/7-9---10-
--10----10--9-9-----7-6/9--9-----8/9-8/9---12---
------------------------------------------------
------------------------------------------------
------------------------------------------------
------------------------------------------------

-14-14-14---12-10-10-10----10-10-10-10---8--7--5--
-15-15-15-14---12-9--12--12---12-12-9-------------
----------------------------------------8--7--6---
--------------------------------------------------
--------------------------------------------------
--------------------------------------------------


-----------7-9--9-10-12-10-9h10-7-10-10-10-10-9--9--9--7-5-4-
----7-9-10---------------------------12-12-12-10-10-10-9-7-5-
--9----------------------------------------------------------
-------------------------------------------------------------
-------------------------------------------------------------
-------------------------------------------------------------

----7---12--12---12---12---10---10-9--10--5h7h5-4-5--2-1-2--
---9---9------9-9--9-9--9-9-----12-10-12--7-----5-7--3-2-3--
--9---9--------9----9----9-----12----------------------------
-9---9-------------------------------------------------------
-------------------------------------------------------------
-------------------------------------------------------------

Cualquier duda a mi mail!!
Y aguante el folklore!!!
Desde Salta-Capital
Se despide Edu je
Envía el tono de "Mi estrella predilecta" a tu celular/móvil
Este fichero es trabajo propio de su transcriptor y representa su interpretación personal de la canción. El material contenido en esta página es
para exclusivo uso privado, por lo que se prohibe su reproducción o retransmisión, así como su uso para fines comerciales.
© LaCuerda.net · Aviso Legal · Privacidad