Tablatura para Guitarra de Hombres G: un Par de Palabras
Conexión · Inscripción
Letras y Acordes
Pantalla Completa
Imprimir
Versión Texto
Añadir Favorito
Otras Versiones

Mostrar Diagramas
Desfile Automático
Manipular Acordes
Formato del Texto

Hombres G
un Par de Palabras(TAB)
calidad:
homg0585
AUTOR: David Summers
ALBUM: La Cagaste...Burt Lancaster (1986)
Enviado por hector
Riff 1 (se repite 2 veces)      |solo la 1a. vuelta|
  Em         C       G            |de LA introduccion|
E-----0-0-----0-0-----3-3~~3----|------------------|--------|
B-----0-0-----1-1-----3-3~~3----|------------------|--------|
G-----0-0-----0-0-----0-0~~0----|------------------|--------|
D-----2-2---2---------0-0~~0----|0h2-2-2-2p0-------|--------|
A---2-----3---------2-----------|------------2-----|--------|
E-0---------------3-------------|------------------|--------|

Riff 2
  Am       C      D 
E-0~~----------0------2-3p2------2-3p2-0h2------------------|
B-1~~----------1------3-3--------3-3---3--------------------|
G-2~~----------0------2-2--------2-2---2--------------------|
D-2~~--------2------0----------0----------------------------|
A-0~~--0-2-3------------------------------------------------|
E-----------------------------------------------------------|
INTRODUCCION
-con el Riff 1-

VERSO 1
-con el Riff 1-
Em         C               G
Se que no quieres ni escucharme,
Em         C         G
se que ya todo terminó

-con el Riff 2-
Am
yo no quiero hablarte
C                  D
quiero escribirte una cancion

VERSO 2 (es con los mismos tonos y Riffs que el verso 1)

Riff 3

    C       D      G    G/F#    Em     C       D 
E-----0~~----2~~----3-----3-----0~~-----0~-----2-3p2-0h2----|
B-----1~~----3~~----3-----3-----0~~-----1~-----3-3---3------|
G-----0~~----2~~----0-----0-----0~~-----0~-----2-2---2------|
D---2------0--------0-----------2~~---2------0--------------|
A-3---------------2-----0-----2-----3-----------------------|
E---------------3-----2-----0-------------------------------|

                    (estos D no se repiten al final de la rola)  
    G     C     G     D D D D D    

E---3~~---0~~---3~~---2-2-2-2-2~~---------------------------|
B---3~~---1~~---3~~---3-3-3-3-3~~---------------------------|
G---0~~---0~~---0~~---2-2-2-2-2~~---------------------------|
D---0~~---2~~---0~~---0-0-0-0-0~~---------------------------|
A---2~~---3~~---2~~-----------------------------------------|
E---3~~---------3~~-----------------------------------------|

CORO 
-con el Riff 3-
       C       D         G    G/F#  Em
Y una lágrima tuya, mojará este papel
         C        D             G C G D D D D D
sólo un par de palabras...te diré


SOLO 
-con riff 1 y 2-

E-----------------------------------------------------------|
B---5-5-5-5-5-5-5-------------------------------------------|
G-------------------5---------------------------------------|
D-----------------5-----------------------------------------|
A---------------------7-5------5-----5-----5----------------|
E--------------------------5h7---5h7---5h7---5h7-3----------|

E-----------------------------------------------------------|
B---5-5-5-5-5-5-5-----------10b10-10-10-10r-8-10br-8---8----|
G-------------------5--------------------------------9---9-9|
D-----------------5-----------------------------------------|
A---------------------7-7-----------------------------------|
E-----------------------------------------------------------|

E------10-8-7-8-7-------------------------------------------|
B-----------------8-----------------------------8-8-7-7-----|
G-7-9-7---------------------------------7-7h9-7-9-9-7-7-----|
D-------------------5-5-5/7-7-7-7/9-9-9---------------------|
A-----------------------------------------------------------|
E-----------------------------------------------------------|

ya luego siguen otros 2 versos y el coro 2 veces 
(el Riff 3 no se completa en la primera vuelta del coro, y en
la segunda no se tocan los D que estan al final del Riff)
Envía el tono de "un Par de Palabras" a tu celular/móvil
Este fichero es trabajo propio de su transcriptor y representa su interpretación personal de la canción. El material contenido en esta página es
para exclusivo uso privado, por lo que se prohibe su reproducción o retransmisión, así como su uso para fines comerciales.
© LaCuerda.net · Aviso Legal · Privacidad