Tablatura para Guitarra de Hombres G: Te Quiero
Conexión · Inscripción
Letras y Acordes
Pantalla Completa
Imprimir
Versión Texto
Añadir Favorito
Otras Versiones

Mostrar Diagramas
Desfile Automático
Manipular Acordes
Formato del Texto

Hombres G
Te Quiero(TAB)
calidad:
homg0515
AUTOR: David Summers
ALBUM: La Cagaste...Burt Lancaster (1985)
Enviado por NaKo_AgUiLa
│ARRIBA EL AMERICA│ nakoboy *2*
weno ai les dejo sta rolita k fue la primera k sake en la lira,
y pos con el paso del tiempo la e estado corrijiendo y kedo super chida,
y perfecta, jeje, ademas esta rola sta poca madre, ok


INTRO
e-------------------------------------------------│
B-------------------------------------------------│
G-------------------------------------------------│
D------0--0-0--------0--0-0--------0-----0-----0--│
A--0-2-----------0-2-----------0-2---0-2---0-2----│
E-------------------------------------------------│

e----------------------------------------│-------------------------------------------------------------
B----------------------------------------│-------------------------------------------------------------
G----------------------------------------│-------------------------------------------------------------
D------0--------4----4-2-----------------│-------------------0--------------0-0-0-2-4-2-------------0--
A--0-2------0-2----------------4-4-------│--4-2-0----------2---0-0----0-2-4-------------0-0-0-0-2-4----
E-------------------------2-2-------2-2--│--------3-3----3---------------------------------------------


 D Bm            F#m   Fm-F#m
No,   ya no me llores

   G            A
No me vayas a hacer

  D       A
Llorar a mí.

 D   Bm          F#m   Fm-F#m
Dame,   dame tu mano

   G           A
Inténtalo, mi niña

         D        A
Quiero ver...te reír



D          Bm     (*)
 Abrázame fuerte

D                Bm   (*)
 Ven corriendo a mí

D
 Te quiero, te quiero, te quiero

      G
Y no ha...go otra cosa

      Gm                    D Bm D A7
Que pen...sar en ti...


e-------------------│
B-------------------│
G-------------------│
D------0-----0------│
A--0-2---0-2---0-2--│
E-------------------│



 D Bm            F#m     Fm-F#m
Tú,   ya estás dormida

   G
Y yo te abrazo y

A               D   A
Siento que respi...ras

 D    Bm           F#m    Fm-F#m
Sueño,   con tu sonrisa

    G            A
Te beso, muy despacio en

       D    A
las meji...llas


e-----------│
B-----------│
G-----------│
D------0----│
A--0-2---0--│
E-----------│


D          Bm    (*)
 Necesito verte

D                  Bm    (*)
 Donde quiera que estes

D
 Te quiero, te quiero, te quiero

      G
Y no ha...go otra cosa


Que pensar en ti

      A7
Sólo vivo y respiro

      D     Bm
Para ti...

      G    A
Te quie...ro

     D  Bm     G A
Te quiero...

      G
Te quie...ro

      Gm        D Bm G A7
Te quie...ro



SOLO
e-----------------------------------------------------------------│
B--10h12----10h12----12-10----------------------------------------│
G--------------------------11-12-11----9-7--7---9h11-11---11-9-11-│
D------------------------------------------9----------------------│
A-----------------------------------------------------------------│
E-----------------------------------------------------------------│

e-----------------------------------------------------------------│
B-----------------------------------------------------------------│
G--9-9-9h7----------------------------------7-9-9-9-7-------------│
D----------9-7-9-7-9--7-----------------7-9-----------------------│
A-----------------------9-10-9----0-7-9---------------------------│
E------------------------------10---------------------------------│

e--------------------------10----17-15-14-15-17-17----17h19-17--17h19-17--17h19-│
B--10h11-12-12-12h11----12----12------------------------------------------------│
G-------------------------------------------------------------------------------│
D-------------------------------------------------------------------------------│
A-------------------------------------------------------------------------------│
E-------------------------------------------------------------------------------│

e--15-15-15/14------------10------10------10--12-10----12h14--14--14-12-│
B-------------15-15--10h12---10h12---10h12------------------------------│
G-----------------------------------------------------------------------│
D-----------------------------------------------------------------------│
A-----------------------------------------------------------------------│
E-----------------------------------------------------------------------│


D           Bm    (*)
 Abrázame fuerte

D                Bm  (*)
 Ven corriendo a mi

D
 Déjame que te diga

                   G
Otra vez que te quiero

      Gm
Te quie...ro

      D                   Bm               G                        A
te quie...ro...   (Déjame que te diga otra Vez que te quiero, te quiero, te quiero)

      D                Bm               G                        A
te quie...ro   (Déjame que te diga otra Vez que te quiero, te quiero, te quiero)

      D
te quie...ro

      Bm
te quie...ro

      G    Gm  D
te quie...ro


e----------------------------------------------2--│
B----------------------------------------------3--│
G----------------------------------------------2--│
D------0--0-0--------0--0-0--------0-----0-----0--│
A--0-2-----------0-2-----------0-2---0-2---0-2----│
E-------------------------------------------------│

#######################################################
ACORDES

   D  Bm  F#m  G  A  Gm  A7
e--2---2---2---3--0--3---3--│
B--3---3---2---0--2--3---2--│
G--2---4---2---0--2--3---2--│
D--0---4---4---0--2--5---2--│
A------2---4---2--0--5------│
E------2---2---3-----3------│



   (*)             Fm-F#m
e---------│     e---1/2----│
B---------│     B---1/2----│
G---------│     G---1/2----│ este es opcional,
D------0--│     D---3/4----│ se usa cuando se toca con una sola guitarra,
A--0-2----│     A---3/4----│ cuando se toca con 2 guitarras, la segunda ace este efecto
E---------│     E---1/2----│


/ = SLIDE
h = HAMMER

##########################################################

GUITARRA 2


 [00:07]                 [00:09]             [00:11]             [00:13]
e---5-----------------------7----------------9/-8/-9----------------------│
B---7-----------------------7---------------10/-9/10----------------------│
G---7-----------------------7---------------11/10/11----------------------│
D---7-----------------------9---------------11/10/11----------------------│
A---5-----------------------9------------------------------------9-12-11--│
E-------------------------------------------------------------------------│


   (00:14)    (00:16)»»»»»»»»»»»»»»»»»»»»»»»»»»»»»»»»
e-----------------------10----10----10----9----9----9--│
B--------------------10----10----10----10---10---10----│
G------------------------------------------------------│
D-----------------11-----------------------------------│
A--9-10-12-----12--------------------------------------│
E------------------------------------------------------│


y mas adelante tambien se vuelve a tocar, asi:

 (00:20)                 (00:22)             (00:24)             (00:26)
e---5-----------------------7----------------9/-8/-9----------------------│
B---7-----------------------7---------------10/-9/10----------------------│
G---7-----------------------7---------------11/10/11----------------------│
D---7-----------------------9---------------11/10/11----------------------│
A---5-----------------------9------------------------------------9-12-11--│
E-------------------------------------------------------------------------│
   no...
                             ya no me llores...
                                                                 no me va...


   (00:27)    (00:29)»»»»»»»»»»»»»»»»»»»»»»»»»»»»»»»»
e-----------------------10----10----10----9----9----9--│
B--------------------10----10----10----10---10---10----│
G------------------------------------------------------│
D-----------------11-----------------------------------│
A--9-10-12-----12--------------------------------------│
E------------------------------------------------------│
...a hacer
                llorar a mi...
Envía el tono de "Te Quiero" a tu celular/móvil
Este fichero es trabajo propio de su transcriptor y representa su interpretación personal de la canción. El material contenido en esta página es
para exclusivo uso privado, por lo que se prohibe su reproducción o retransmisión, así como su uso para fines comerciales.
© LaCuerda.net · Aviso Legal · Privacidad