Tablatura para Guitarra de Hombres G: Sufre Mamón
Conexión · Inscripción
Letras y Acordes
Pantalla Completa
Imprimir
Versión Texto
Añadir Favorito
Otras Versiones

Mostrar Diagramas
Desfile Automático
Manipular Acordes
Formato del Texto

Hombres G
Sufre Mamón(TAB)
calidad:
homg0484
AUTOR: David Summers
ALBUM: Hombres G (1985)
Enviado por Vapa
esta rola esta chidisima
SALUDOS A MI CONEJITA
Q LA QUIERO MUCHISIMO.

Cuando se besan lo paso fatal...

e|---------------------------|
B|---------------------------|
G|---------13h14p13----------|
D|-------------------16-14---|
A|--14-16--------------------|
E|---------------------------|


Riff 2

Voy a vengarme de ese marik...

e|-/13-13--10----10---10-------10--|
B|------------13----13---10-12-----|
G|---------------------------------|
D|---------------------------------|
A|---------------------------------|
E|---------------------------------|


Solo

e|-10-----------------------------|
B|---10---------------------------|
G|------10--/12-10-12-10—12/14-14-|
D|--------------------------------|
A|--------------------------------|
E|--------------------------------|

e|-/10-10-10h13-10---------------------|-5-4-3---------3----|
B|-------------------------------------|-5-4-3---3-------3--|
G|----------------10-12-10—12/14-16-14-|-5-4-3-3----3------3|
D|-------------------------------------|--------------------|
A|-------------------------------------|--------------------|
E|-------------------------------------|--------------------|

e|-------------10-----|543---------3-----|-------------------3/4/5-|
B|-----10--------10---|543----3------3---|-------------3/4/5-------|
G|-/10-----10------10-|543--3----3-----3-|-------0/3/5-------------|
D|--------------------|------------------|-4—5---------------------|
A|--------------------|------------------|-------------------------|
E|--------------------|------------------|-------------------------|

e|-/7--/8—--8/9/10---/12-10vv-|
B|----------------------------|
G|----------------------------|
D|----------------------------|
A|----------------------------|
E|----------------------------|




Voy a destrozarle el choche...

e|-----10------10---------10----/13---10----|
B|--10------10---------10-------------------|
G|--10------10-------10---------------------|
D|--10------10-----10-----------------------|
A|------------------------------------------|
E|------------------------------------------|


(Esto se hace en el final
cuando repiten el coro varias veces)

e|----------------------------|
B|----------------------------|
G|-10---/14---12---10---------|
D|----------------------------|
A|----------------------------|
E|----------------------------|

 (final)

(Esto se hace después del último coro que repiten)

e|----------------------------|
B|----------------------------|
G|-10---/14---/17----/19------|
D|----------------------------|
A|----------------------------|
E|----------------------------|
Envía el tono de "Sufre Mamón" a tu celular/móvil
Este fichero es trabajo propio de su transcriptor y representa su interpretación personal de la canción. El material contenido en esta página es
para exclusivo uso privado, por lo que se prohibe su reproducción o retransmisión, así como su uso para fines comerciales.
© LaCuerda.net · Aviso Legal · Privacidad