Tablatura para Guitarra de Hombre a Hombre: Me Levantaré
Conexión · Inscripción
Letras y Acordes
Pantalla Completa
Imprimir
Versión Texto
Añadir Favorito
Otras Versiones

Mostrar Diagramas
Desfile Automático
Manipular Acordes
Formato del Texto

Hombre a Hombre
Me Levantaré(TAB)
calidad:
haho0191
AUTOR: Eduardo Durney
ALBUM: Me Levantare (Septiembre)
Enviado por omar
Primero para tocar esta cancion, deberemos
afinar solo en la guitarra electrica,
la primera cuerda en re en vez de mi (quedando la cuerdas
en este orden: D-L-D-G-B-E, de arriba hacia abajo)

Para empezar Tocamos D y luego el intro

INTRO:

Primera parte
D-0--------0-------0---3/5----
A-----5-3-----3-2-------------
D--0--------0-------0---------
G-----------------------------

Segunda parte

D-0--------0---5-3-5-7-5-3----
A-----5-3---------------------      (Las dos partes se repiten 3 veces)
D--0--------0-----------------
G-----------------------------


D
   Cuando hay temor y oscuridad
F
   Ya no quedan puertas que golpear
C                                        G
   Pareciera que el futuro incierto está

D
   En mi mente yo puedo escuchar,
F
   No hay salida por ningún lugar
C                                       G
   ya no hay fuerzas para poder escapar

      Bb                        C
Pero tu, me has mostrado el camino
       Bb                        C
Jesús tu tienes trazado mi destino

       D
Me levantare con autoridad,
        C                            B
me enfrentare contra toda adversidad
                      Bb       C
por que tu conmigo estas Señor

         D                    C                       B
me das tu poder para vencer, las murallas yo derribaré
         Bb         C
porque solo en ti Jesús, yo confiaré


Interludio:

D-0--------0------0---3/5-3--
A----5-3/2----2-0-----3/5-3--
D--0--------0------0--3/5-3--
G----------------------------

D-0---------0----------------------------
A----5-3/2------3-4-5---5-3--------------
D--0---------0--------3-----s7---7-5-----
G-----------------------------5-----s7---

D-0---------0-----------------
A----5-3/2------3-3-3-3-3-3---
D--0---------0--4-3-3-3-3-3---
G---------------4-4-4-4-4-4---

D-0--------0------0---3/5-3--
A----5-3/2----2-0-----3/5-3--
D--0--------0------0--3/5-3--
G----------------------------

D-0---------0----------------------------
A----5-3/2------3-4-5---5-3--------------
D--0---------0--------3-----s7---7-5-----
G-----------------------------5-----s7---

D-0---------0--------------------
A----5-3/2------3-3-3-3-3-3------
D--0---------0--4-3-3-3-3-3---0--
G---------------4-4-4-4-4-4---2--
B-----------------------------3--

           D
//Me levantare con autoridad//
          D
//me das tu poder para vencer//
           D
//me levantare con autoridad//
        D
me das tu poder para vencer.......

Los tonos del solo son los mismos del coro
el solo va algo asi:

E---------------------------------------
A---------------------------------------
D---------------------------------------
G--------------13-14-----14---12----------
B-------s15-15---------13-----------------
e---------------------------------------

E---------------------------------------
A----------------------------------12---
D-12-12-12-12-12-12-12-12---14---12-----
G-12-12-12-12-12-12-12-12---14----------
B---------------------------------------
e---------------------------------------

E---------------------------------------
A---------------------------------------
D---------------------------------------
G-//10-12-10-12-10-12-10-12//-10--------
B---------------------------------------
e---------------------------------------

E---------------------------------------
A---------------------------------------
D---------------------------------------
G---------------------------------------
B-----s15-15-15-13-15-------17-20-22----
e---------------------------------------

E----------------------------------------
A----------------------------------------
D----------------------------------------
G----------------------------------------
B-----22-22-22-22-22-22-22-22-22---------
e------20-20-20-20-20-20-20-20-20--------

E---------------------------------5-3-5/7-5-3--
A----------------------------------------------
D----------------------------------------------
G-----------12-14-------12-14-12---------------
B-----------------------13---------------------
e-s22-20-22h-----13-12-------------------------

luego cae al coro y son los mismos tonos
despues el final es igual que el intro,
(se hacen las dos partes y terminamos en re)
Envía el tono de "Me Levantaré" a tu celular/móvil
Este fichero es trabajo propio de su transcriptor y representa su interpretación personal de la canción. El material contenido en esta página es
para exclusivo uso privado, por lo que se prohibe su reproducción o retransmisión, así como su uso para fines comerciales.
© LaCuerda.net · Aviso Legal · Privacidad