Tablatura para Guitarra de Himnos Nacionales: Himno Nacional de Venezuela
Conexión · Inscripción
Letras y Acordes
Pantalla Completa
Imprimir
Versión Texto
Añadir Favorito
Otras Versiones

Mostrar Diagramas
Desfile Automático
Manipular Acordes
Formato del Texto


Himnos Nacionales
Himno Nacional de Venezuela(TAB)
calidad:
hnac0012
AUTOR: Himnos Nacionales  corregir
ALBUM: desconocido (1881)
Enviado por gabriel
Esta es un poco mi versión he visto otras pero no suenan tan parecido

Coro

e:-3-3-3-3-3--0-0-1----------1-----0-------------------------|
B:------------------3-3-3--3---3-3---1--3-3-0-0-1------------|
G:-----------------------------------------------------------|
D:-----------------------------------------------------------|
A:-----------------------------------------------------------|
E:-----------------------------------------------------------|

e:-3-3-3-3-3--0-0-1-3--5-1---------5-1-1-3-0-1-1-------------|
B:-------------------------3--3-------------------3-3-1------|
G:-----------------------------------------------------------|
D:-----------------------------------------------------------|
A:-----------------------------------------------------------|
E:-----------------------------------------------------------|

Estrofas I, II & III

e:-0-0---------0-0---------1-1-------------------------------|
B:-----1-1-1-------1-1-1-------3-3-3---0-3-0-----------------|
G:-----------0-----------0-----------0-------0---------------|
D:-----------------------------------------------------------|
A:-----------------------------------------------------------|
E:-----------------------------------------------------------|

e:-----------------------------------------------------------|
B:-------0-3-1--------0-1--1-3-1-3-1-6--1-3-1----------------|
G:-0-0-2--------0-0-2-------------------------3-2------------|
D:-----------------------------------------------------------|
A:-----------------------------------------------------------|
E:-----------------------------------------------------------|

e:----------------------------0-1-2-3--0-----0---------------|
B:---6--5-5-3-3--3-1-0------3------------1-3--1-0------------|
G:-2-------------------2-0------------------------2----------|
D:-----------------------------------------------------------|
A:-----------------------------------------------------------|
E:-----------------------------------------------------------|

e:------------------1-0-------------------0-1-2-3-0---1------|
B:-6-5-3-1-0----0-3-----1--3-3-0-0-1----3-----------3--0-0-1-|
G:------------0----------------------------------------------|
D:-----------------------------------------------------------|
A:-----------------------------------------------------------|
E:-----------------------------------------------------------|
Este fichero es trabajo propio de su transcriptor y representa su interpretación personal de la canción. El material contenido en esta página es
para exclusivo uso privado, por lo que se prohibe su reproducción o retransmisión, así como su uso para fines comerciales.

© LaCuerda.net · Aviso Legal · Privacidad