Tablatura para Guitarra de Himnos Nacionales: Himno Nacional Argentino
Conexión · Inscripción
Letras y Acordes
Pantalla Completa
Imprimir
Versión Texto
Añadir Favorito
Otras Versiones

Mostrar Diagramas
Desfile Automático
Manipular Acordes
Formato del Texto

Himnos Nacionales
Himno Nacional Argentino(TAB)
calidad:
hnac0028
AUTOR: Himnos Nacionales  corregir
ALBUM: desconocido
Enviado por Tadeo
Modo facil:

---0---3--1-----------------------------------------------
-1---1------3--0----0-0-0--1-3-1--------------------------
-------------------------------------2-0--------0---------
-----------------------------------2-----4-4--0----3-2-0--
----------------------------------------------------------
----------------------------------------------------------

-1-0-------------0-1-3-1-----1-3-1-----1-3---1------------
------3----0-1-3---------3-3-------3-3----------3---------
---------2------------------------------------------------
----------------------------------------------------------
----------------------------------------------------------
----------------------------------------------------------

----------------------------------------------------------
----------------------------------------------------------
-------------------------2-2------------------------------
-2-0-----------------2-2-----2-2--0-0-0-0-0-0-0-0---------
-----3-3-3-3-3-3-3-3--------------------------------------
----------------------------------------------------------

----------------------------------------------------------
----------------------------------------------------------
----------------------------------------------------------
0-0--3-3--0-0-----------2-0----------3-2--0-0-0-0---------
---------------3-3-3-3-------3-3-3-3----------------------
----------------------------------------------------------

----------------------------------------------------------
----------------------------0----------0-1----------------
-0------------2-0-------------2--0-0-0--------------------
---3--2-2-2-2------3-3-3-3--------------------------------
----------------------------------------------------------
----------------------------------------------------------




Modo dificil:

---0---3--1-----------------------------------------------
-1---1------3--0----0-0-0--1-3-1--------------------------
---0---------------------------------2-0--------0---------
-2---2----0------------------0-----2-----4-4--0----3-2-0--
-3---3-2----0--2----2-2-2--3---3--------------------------
-------3--------------------------------------------------

-1-0-------------0-1-3-1-----1-3-1-----1-3---1------------
------3----0-1-3---------3-3-------3-3----------3---------
-0-0--0--2------------------------------------------------
----------------------------------------------------------
----------------------------------------------------------
----------------------------------------------------------

----------------------------------------------------------
----------------------------------------------------------
-------------------------2-2------------------------------
-2-0-----------------2-2-0-0-2-2--0-0-0-0-0-0-0-0---------
-----3-3-3-3-3-3-3-3-0-0-----0-0--0-0-0-0-0-0-0-0---------
-----0-0-0-0-0-0-0-0--------------------------------------

----------------------------------------------------------
----------------------------------------------------------
----------------------------------------------------------
0-0--3-3--0-0-----------2-0----------3-2--0-0-0-0---------
0-0--3-3--0-0--3-3-3-3-------3-3-3-3----------------------
----------------------------------------------------------

----------------------------------------------------------
----------------------------0----------0-1----------------
-0------------2-0-------------2--0-0-0--------------------
---3--2-2-2-2------3-3-3-3--------------------------------
----------------------------------------------------------
----------------------------------------------------------

-------0--3-3--3-1-------------0--3-3--3-1----------------
-----1-------------2-0-------1-------------2-0------------
---0-----------------------0------------------------------
-3-----------------------3--------------------------------
----------------------------------------------------------
----------------------------------------------------------

-0---0----0-----------------------------------------------
---1----1----1----1----1----------------------------------
----------------------------------------------------------
-2---2----2-----------------------------------------------
---3----3----3----3----3----------------------------------
----------------------------------------------------------



Atencion!!!!

Que temas toco:
-----------------------------------------------------------------
Tangos y milongas de ultimo nivel, tradicionales y un poco de rock
-----------------------------------------------------------------

Temas mas dificiles y conosidos que se tocar:
------------------------------------------------------------------
Zorba el griego;A Don Ata; Milonga de Don Taco; Taquito Militar
Pajaro Campanas; Sweet Child O' Mine; Ave Maria; entre otras que me
Pueden consultar
------------------------------------------------------------------

Que transcripciones:
---------------
Cacho Tirao
---------------

Me pueden consultar las tablaturas o partituras contactandose con
mi msn :  rosochackitadeo@hotmail.com

Despues pueden ver todo en mi facebook en mis videos ;)
http://www.facebook.com/home.php#/video/?id=1327843217

Atencion!!!!!!
------------------------------------------------------------------
Tambien doy partituras y enseño piano, organo, vandoleon y teclado
------------------------------------------------------------------
Envía el tono de "Himno Nacional Argentino" a tu celular/móvil
Este fichero es trabajo propio de su transcriptor y representa su interpretación personal de la canción. El material contenido en esta página es
para exclusivo uso privado, por lo que se prohibe su reproducción o retransmisión, así como su uso para fines comerciales.
© LaCuerda.net · Aviso Legal · Privacidad