Tablatura para Guitarra de Hillsong United: Tómalo
Conexión · Inscripción
Letras y Acordes
Pantalla Completa
Imprimir
Versión Texto
Añadir Favorito
Otras Versiones

Mostrar Diagramas
Desfile Automático
Manipular Acordes
Formato del Texto

Hillsong United
Tómalo(TAB)
calidad:
huni0095
AUTOR: Hillsong United  corregir
ALBUM: Unidos Permanecemos (2006)
Enviado por Osiel
Buenoo esta es  mi primera colaboracion nomas le hice unos
areglos la otra esta muy bien pero creo ke oye mejor asi
porfa voten  esto es para la honra De Dios !!!!!!!!!!!!!


Intro/Verso - Guitarra 1
e|----------------------------14--14s16-|
B|--14-1414-12-1212-11-1111-12--12------|
G|--------------------------------------|
D|--------------------------------------|
A|--------------------------------------|
E|--------------------------------------|


Verso 1 - Guitarra 2
e|------------------------------------|
B|------------------------------------|
G|------------------------------------| este  punteo lo hace el bajo
D|---------------------------1-1------|   tambien
A|--2-2-2--2-2-2--2-2-2--1-1----------|
E|------------------------------------|

Coro
e|------------------------------------|
B|------------------------------------|
G|--4-4-4-4-4-4-4-4-------------------|
D|--4-4-4-4-4-4-4-4--4-4-4-4-4-4-4-4--|
A|--2-2-2-2-2-2-2-2--4-4-4-4-4-4-4-4--|
E|-------------------2-2-2-2-2-2-2-2--|

e|------------------------------------|
B|------------------------------------|
G|------------------------------------|
D|--6-6-6-6-6-6-6-6--2-2-2-2-2-2-2-2--|            x 1
A|--6-6-6-6-6-6-6-6--2-2-2-2-2-2-2-2--|
E|--4-4-4-4-4-4-4-4--0-0-0-0-0-0-0-0--|

e|---------------------------------------|
B|---------------------------------------|
G|--4-4-4-4-4-4-4-4-------------------6--|
D|--4-4-4-4-4-4-4-4--4-4-4-4-4-4-4-4--6--|
A|--2-2-2-2-2-2-2-2--4-4-4-4-4-4-4-4--4--|
E|-------------------2-2-2-2-2-2-2-2-----|


Intro/Verso - Guitarra 1
e|----------------------------14--14s16-|
B|--14-1414-12-1212-11-1111-12--12------|
G|--------------------------------------|
D|--------------------------------------|
A|--------------------------------------|
E|--------------------------------------|


Verso 1 - Guitarra 2
e|------------------------------------|
B|------------------------------------|
G|------------------------------------|
D|---------------------------1-1------|
A|--2-2-2--2-2-2--2-2-2--1-1----------|
E|------------------------------------|



Coro    x 2

Bridge 1
e|--------------------------------------|
B|--------------------------------------|
G|--------------------------------------|
D|--------------------------------------|
A|--22-44-66-77-------------------------|
E|--------------------------------------|

Bridge 2
e|------------------------------------------------------------------|
B|------------------------------------------------------------------|
G|--6-6-----------------------------6-6-----------------------------|
D|--6-6--6-6--4-4--2-2-2-2-2-2-2-2--6-6--6-6--4-4--2-2-2-2-2-2-2-2--|
A|--4-4--6-6--4-4--2-2-2-2-2-2-2-2--4-4--6-6--4-4--2-2-2-2-2-2-2-2--|
E|-------4-4--2-2--0-0-0-0-0-0-0-0-------4-4--2-2--0-0-0-0-0-0-0-0--|

e|-------------------------------------------------------------------|
B|-------------------------------------------------------------------|
G|--6-6----------------------------4-4-4-4-4-4-4-4--4-4-4-4-4-4-4-4--|
D|--6-6--6-6--4-4--2-2-2-2-2-2-2-2-4-4-4-4-4-4-4-4--4-4-4-4-4-4-4-4--|
A|--4-4--6-6--4-4--2-2-2-2-2-2-2-2-2-2-2-2-2-2-2-2--2-2-2-2-2-2-2-2--|
E|-------4-4--2-2--0-0-0-0-0-0-0-0-----------------------------------|

coro – x 2

final
e|-------------------------------------------------|
B|-------------------------------------------------|
G|--6--6--6--6---6--6--6--6---6-6-6-6-6-6-6-6---4--|
D|--6--6--6--6---6--6--6--6---6-6-6-6-6-6-6-6---4--|
A|--4--4--4--4---4--4--4--4---4-4-4-4-4-4-4-4---2--|
E|-------------------------------------------------|
Envía el tono de "Tómalo" a tu celular/móvil
Este fichero es trabajo propio de su transcriptor y representa su interpretación personal de la canción. El material contenido en esta página es
para exclusivo uso privado, por lo que se prohibe su reproducción o retransmisión, así como su uso para fines comerciales.
© LaCuerda.net · Aviso Legal · Privacidad