Tablatura para Guitarra de Hillsong United: Hosanna
Conexión · Inscripción
Letras y Acordes
Pantalla Completa
Imprimir
Versión Texto
Añadir Favorito
Otras Versiones

Mostrar Diagramas
Desfile Automático
Manipular Acordes
Formato del Texto

Hillsong United
Hosanna(TAB)
calidad:
huni0661
AUTOR: Hillsong United
ALBUM: All of the Above (2007)
Enviado por Daniel
Intro
-----4-------4------------------
---5-----5h7---------4-------4--
-6-----6-----------4-----4h6----
-----------------6-----6--------
--------------------------------
--------------------------------

--------------------------------
-------5---5--------4--------4--
-----6-------6----4------4h6----
-6s7-----7------6------6--------
--------------------------------
--------------------------------

-----4-------4------------------
---5-----5h7---------4-------4--
-6-----6-----------4-----4h6----
-----------------6-----6--------
--------------------------------
--------------------------------

-----------7-------------9------
-------5-----5------7------7----
-----6------------8-------------
-6s7-----7------9------9--------
--------------------------------
--------------------------------

Acordes: C#m E F#m G#m

Verso
-----12------4-----------------
---9-------5--------2--4-------
-9-------6--------2------4---4-
----------------4----------4---
-------------------------------
-------------------------------

Pre-Verso
-----4-----4-----4-----7-----5---4-
---5-----5-----5-----5-----5-------
-6-----6-----6-----6-----6-----6---
-----------------------------------
-----------------------------------
-----------------------------------

acorde: C#m

Coro:
-----0-------0-------0-------0-----
---0---0---0---0---0---0---0---0---
-----------------------------------
-----------------------------------
---------0-------2-------4---------
-4---------------------------------

-----0-------0-------0-------0-----
---0---0---0---0---0---0---0---0---
-----------------------------------
-----------------------------------
-0-------4-------2-------2---------
-----------------------------------

-----0-------0-------0-------0-----
---0---0---0---0---0---0---0---0---
-----------------------------------
-----------------------------------
---------0-------2-------4---------
-4---------------------------------

-----0-------0---
---0---0---0---0-
-----------------
-----------------
-0-------2-------
-----------------

acordes:
E/G# A B C#m
A C#m B B

E/G# A B C#m
A B



Instrumental
--------------------------------
-12-12-12-12-12-9-7-9--(x2)-----
--------------------------------
--------------------------------
--------------------------------
--------------------------------

--------------------------------------
-10-10-10-10-10-9-7-5-4-4-4-4-5-5-7-7-
--------------------------------------
--------------------------------------
--------------------------------------
--------------------------------------

--------------------------------
-12-12-12h14-12-12-9-7-9-(x2)---
--------------------------------
--------------------------------
--------------------------------
--------------------------------

-------11----11----11-12-14-14-14-14-14-14-14-14-
-10-10----10----10-------------------------------
-------------------------------------------------
-------------------------------------------------
-------------------------------------------------
-------------------------------------------------

Acordes:
C#m E F#m G#m

Puente
Acordes:
A B E C#m
A B C#m C#m

--------------------------------
-------9-----------10----9------
-------11b13--(x3)-13b14-11b13--
-11-11--------------------------
--------------------------------
--------------------------------

Despues Del Puente:
---------9--------------9--------------
------12---12--------12---12--------12-
----9---------9----9---------9----9----
-11-------------11-------------11------
---------------------------------------
---------------------------------------
Envía el tono de "Hosanna" a tu celular/móvil
Este fichero es trabajo propio de su transcriptor y representa su interpretación personal de la canción. El material contenido en esta página es
para exclusivo uso privado, por lo que se prohibe su reproducción o retransmisión, así como su uso para fines comerciales.
© LaCuerda.net · Aviso Legal · Privacidad