Tablatura para Bajo de Hillsong United: Generación de Danza
Conexión · Inscripción
Letras y Acordes
Pantalla Completa
Imprimir
Versión Texto
Añadir Favorito
Otras Versiones

Mostrar Diagramas
Desfile Automático
Formato del Texto

Hillsong United
Generación de Danza(BAJ)
calidad:
huni2281
AUTOR: Hillsong United  corregir
ALBUM: desconocido (2004)
Enviado por gerson
ESTA ROLA ESTA MUY CHIDA
Y FACIL, SOLO DENLE RITMO A LA INTRO
BAJO ESTANDAR, E, A, D, G
ENTRA PRIMERO LA  GUITARRA, LUEGO LA BATERIA Y DESPUES EL BAJO
INTRO:
E:------7-----------7------------------
A:---5-----5----5----5---5/9999--------
D:-------------------------------------
G:-------------------------------------

E:-7---5---7—7---5---5---5/10101010
A:---------------------------------
D:---------------------------------
G:---------------------------------


TU AMOR ME ENSEÑA A DANZAR
E:------7-----------7------------------
A:---5-----5----5----5---5/9999---
D:--------------------------------------
G:---------------------------------------

A CELEBRAR CON EL CORAZON
E:--7---5---7—7---5---5---5/10101010---
A:------------------------------------------------
D:------------------------------------------------
G:------------------------------------------------

G                      C
Y CON DANZAS DAREMOS GRACIAS

AKI NUEVAMENTE SE HACE LO MISMO
K LO ANTERIOR SOLAMENTE CAMBIA LA LETRA
PERO LOS TIEMPOS SON LOS MISMOS

PRECORO:

      D                        E
Es el desbordar , de un libre corazón
         G
Y  hoy te vemos Dios
A
Callar es imposible
D
Seremos la generación que danza
E
Que danza por tu grande amor oh Dios
G                D
Tu gran amor oh Dios

AKI EN ESTA PARTE PUEDES HACER UN
 SLIDE PARA K NO C OIGA MUY PLANA, PERO SINO
HAZLO NORMAL Y CONTINUA EN D

Seremos la generación que grita
E
Que grita por tu grande gloria Dios
G                  D
Tu grande gloria Dios

EN LA SEGUNDA PARTE ES LO MISMO PERO MAS RAPIDO
MAS O MENOS ASI
E:------7-------7-------7-------------------
A:---5-----5—5----5-5----5---5/9999---
D:--------------------------------------------
G:--------------------------------------------


EL ACOMPAÑAMIENTO DEL SOLO
DE GUITARRA PRONTO LO TRANSCRIBO
ESPERO QUE LES AYUDE ES LA
VERSION DE HILLSONG
Y UN SALUDOTE PARA
ESCUELA DE MUSICA JC
Y AL PROFE NACHO
K ME DIO CASI TODA LA IDEA
A LA BANDA JESUS FREAK
LAS VIVIS Y YO
GOD BLESS
DTB
YA SABEN JESUS ES LA ESPERANZA DEL CRISTIANO
AKI EN SANTA MARIA TEXMELUCAN PUEBLA
Y DISCULPEN LOS ERRORES PERO SOE NUEVO EN ESTO
Envía el tono de "Generación de Danza" a tu celular/móvil
Este fichero es trabajo propio de su transcriptor y representa su interpretación personal de la canción. El material contenido en esta página es
para exclusivo uso privado, por lo que se prohibe su reproducción o retransmisión, así como su uso para fines comerciales.
© LaCuerda.net · Aviso Legal · Privacidad