Tablatura para Guitarra de Hillsong United: Es nuestro Dios
Conexión · Inscripción
Letras y Acordes
Pantalla Completa
Imprimir
Versión Texto
Añadir Favorito
Otras Versiones

Mostrar Diagramas
Desfile Automático
Manipular Acordes
Formato del Texto


Hillsong United
Es nuestro Dios(TAB)
calidad:
huni2344
AUTOR: R Morgan
ALBUM: Con Todo (2010)
Enviado por tochi
bueno aqui les mando el intro y el solo de esta preciosa adoracion
TOCHI PS!!

intro:


e-------------------------
a-7(x8)11(x8)4(x4)0(x4)----
d-6 ---9-----2----2---4----
g------------------------2- (x2)
b--------------------------
e-------------------------



intermedio

G#m  A F#m B G#m  A (x2)   aca se hace arpegueos


solo
e-------------------------------------
d-------------------------------------
g-------------------------------------
b-12--12-------------12--------12---------
e---12--12------16------11--11-----14---


E-------------------------------------
A--------------------------------------
D---------------------------------------
G---------------------------------------
B-10--------10-------9h10----9---9----9
E----9----9----12-13------12---12---12-


b-12(x8)12(x8)10(x4)10-10-10-10---9  (x4)
e-12----11----9-----12-12-13-13---12

bueno eso es todo   no se desanimen!!!
Este fichero es trabajo propio de su transcriptor y representa su interpretación personal de la canción. El material contenido en esta página es
para exclusivo uso privado, por lo que se prohibe su reproducción o retransmisión, así como su uso para fines comerciales.

© LaCuerda.net · Aviso Legal · Privacidad