Tablatura para Guitarra de Hillsong United: Dios Eterno
Conexión · Inscripción
Letras y Acordes
Pantalla Completa
Imprimir
Versión Texto
Añadir Favorito
Otras Versiones

Mostrar Diagramas
Desfile Automático
Manipular Acordes
Formato del Texto

Hillsong United
Dios Eterno(TAB)
calidad:
huni1152
AUTOR: Hillsong United  corregir
ALBUM: desconocido
Enviado por Alex
saludos A  LA Iglesia Bautista Filipos.



Esta es la intro:
                  Se toca con estas notas F C G F C

e.--5-8p5-12---8-12-8-10-7-------5-8p5-12--8-12-8-10-7-----
B.-8----------8------------8----8---------8------------8---
G.---------------------------------------------------------
D.---------------------------------------------------------
A.---------------------------------------------------------
E.---------------------------------------------------------


e.--5-8p5-12---8-12-8-10-7-------5-8p5-12--8-12-8-10-7-----
B.-8----------8------------8----8---------8------------8---
G.---------------------------------------------------------
D.---------------------------------------------------------
A.---------------------------------------------------------
E.---------------------------------------------------------


G               F        C        G
Mil veces te falle, Mas tu fuiste fiel
                F         C         G
Tu gracia me levanto, Me basta tu amor
       Am7       F               C    G
Dios eterno tu luz por siempre brillara
          Am7       F      C     G
Y tu gloria incomparable sin final.


Se repite parte de la intro:

e.--5-8p5-12---8-12-8-10-7-------5-8p5-12--8-12-8-10-7-----
B.-8----------8------------8----8---------8------------8---
G.---------------------------------------------------------
D.---------------------------------------------------------
A.---------------------------------------------------------
E.---------------------------------------------------------



  G       F           C     G
Señor tu voluntad permanecerá,
                F         C      G
En ti me quiero perder en adoración
      Am7        F                C    G
Dios eterno tu luz por siempre brillara
      Am7       F          C     G       F
Y tu gloria incomparable sin final


           C                Am7
De mi Corazón te doy el control
             G                 F
Consume todo mi interior, Dios
               Am7                G
Tu justicia y amor me abrazan Señor
               Dm
Te amo desde mi interior


Se repite nuevamente:

e.--5-8p5-12---8-12-8-10-7-------5-8p5-12--8-12-8-10-7-----
B.-8----------8------------8----8---------8------------8---
G.---------------------------------------------------------
D.---------------------------------------------------------
A.---------------------------------------------------------
E.---------------------------------------------------------


  G       F           C     G
Señor tu voluntad permanecerá,
                F         C      G
En ti me quiero perder en adoración
      Am7        F                C    G
Dios eterno tu luz por siempre brillara
      Am7       F          C     G       F
Y tu gloria incomparable sin final


           C                Am7
De mi Corazón te doy el control
             G                 F
Consume todo mi interior, Dios
               Am7                G
Tu justicia y amor me abrazan Señor
               Dm
Te amo desde mi interior             este Dm se hace con
                                     acordes de barra en el
                                     5to traste.



Coro

      Am7        F                C    G
Dios eterno tu luz por siempre brillara
      Am7       F          C     G
Y tu gloria incomparable sin final
       C      F         G      Am7
El clamor mi ser es contigo estar
       F       G          F    G
Desde mi interior mi alma clamara

(Solo)
F  C  Am7  G  F  Am7  G  Dm

Regresan a la parte: De mi corazon

Coro
      Am7        F             C    G
//Dios eterno tu luz por siempre brillara
      Am7       F          C      G
Y tu gloria incomparable sin final
       C        F       G      Am7
El clamor mi ser es contigo estar
       F        G         F     G
Desde mi interior mi alma clamara//

       F        G         F     G
Desde mi interior mi alma clamara.


El solo lo agrego luego.
Envía el tono de "Dios Eterno" a tu celular/móvil
Este fichero es trabajo propio de su transcriptor y representa su interpretación personal de la canción. El material contenido en esta página es
para exclusivo uso privado, por lo que se prohibe su reproducción o retransmisión, así como su uso para fines comerciales.
© LaCuerda.net · Aviso Legal · Privacidad