Tablatura para Guitarra de Hillsong United: Desde mi interior
Conexión · Inscripción
Letras y Acordes
Pantalla Completa
Imprimir
Versión Texto
Añadir Favorito
Otras Versiones

Mostrar Diagramas
Desfile Automático
Manipular Acordes
Formato del Texto

Hillsong United
Desde mi interior(TAB)
calidad:
huni0034
AUTOR: Hillsong United  corregir
ALBUM: desconocido
Enviado por carlos
    F                    C           G
e ------------------12----------12------------------]
B ----------13--------------13------13--15--12------]  (x4)
G --12--14------14------12----------------------12--]

    F                 C         G
Mil veces te falle, mas tu fuiste fiel
            F             G         G
Tu gracia me levanto, me basta tu amor
       Am      F               C      G
Dios eterno tu luz por siempre brillara
        Am        F       C     G
Y tu gloria incomparable sin final

e ------------------12----------12------------------]
B ----------13--------------13------13--15--12------]  (x2)
G --12--14------14------12----------------------12--]

          F           C     G
Señor tu voluntad permanecera,
       F                  C      G
En ti me quiero perder en adoracion
       Am      F               C      G
Dios eterno tu luz por siempre brillara
        Am        F       C     G
Y tu gloria incomparable sin final

F           C
 De mi corazon te doy el control
Am             G             F
 Consume todo mi interior, Dios
              C               G
 Justicia y amor me abrazan señor
               Dm           F
 Te amo desde mi interior

e ------------------12----------12------------------]
B ----------13--------------13------13--15--12------]  (x2)
G --12--14------14------12----------------------12--]

     Señor tu voluntad...................



         Am      F               C      G
//Dios eterno tu luz por siempre brillara
        Am        F       C     G
Y tu gloria incomparable sin final
       C         F         G      Am
El clamor de mi ser es contigo estar
       F       G          F     G
Desde mi interior mi alma clamara// Dios
    F
e -------------------------------------------------------
B ----13-13-13-13-13-13-13-13-13-13-13-13-13-13-13-13----
G ---14-14-14-14-14-14-14-14-12-12-12-12-14-14-14-14-----
  se sigue bien el teimpo ya sea de bajo o acustica
    C
e --12-12-12-12-12-12-12-12-13-13-13-13-12-12-12-12----
B -13-13-13-13-13-13-13-13-13-13-13-13-13-13-13-13-----
G -----------------------------------------------------
    Am                                               G
e -------------------------------------------------------------
B --13--12--10--12--8---13--12--10--8----9---------------------
G -------------------------------------8---8--6--6/8---6-6/10--
D ---------------------------------------------------8---------
    F
e --------------12-12-12-12-12-12-12-12-----
B -------------13-13-13-13-13-13-13-13------
G --13--12--10------------------------------
    C
e --------------12-12-12-12-12-12-12-12-----
B -------------13-13-13-13-13-13-13-13------
G --13--12--10------------------------------
      G                                               Dm
e ----17-17-----17-17-----17-17-----17-17-----17-17-----19-19-19
B --15-----15-15-----15-15-----15-15-----15-15-----15-17--------
 F         C                  Am
De mi corazon te doy el control..............

justicia y amor

B -13-13-13-13-13-13-13-13-13-13-13-13-13-13-13-13---
G --14-14-14-14-14-14-14-14-12-12-12-12-14-14-14-14----

e --12-12-12-12-12-12-12-12-13-13-13-13-12-12-12-12----
B -13-13-13-13-13-13-13-13-13-13-13-13-13-13-13-13-----
G -----------------------------------------------------
       Am
coro( dios eterno tu luz por siempre brillara(x2)

B --13--12--10--13--12--10--13--12--10--10/12--8--6---]

Esta cancion le es de mucha bendicion en mi iglecia..
pidanle person a jesus
y ke el sea tu guia para la vida enterna...
un saludo a los muchachos de la alabanza
(oly,maleny,marcos,katie,joan,y jorge ke viene en camino)
le mando un saludo al pastor victor arturo y juanny los kiero mucho
ke dios los bendiga ((3xt4an0 m4m4) ) si tienen alguna pregunta
escribanme noriega_12cedblo@hot....
Envía el tono de "Desde mi interior" a tu celular/móvil
Este fichero es trabajo propio de su transcriptor y representa su interpretación personal de la canción. El material contenido en esta página es
para exclusivo uso privado, por lo que se prohibe su reproducción o retransmisión, así como su uso para fines comerciales.
© LaCuerda.net · Aviso Legal · Privacidad