Letra y Acordes de Héroes del Silencio: la Chispa Adecuada
Conexión · Inscripción
Letras y Acordes
Pantalla Completa
Imprimir
Versión Texto
Añadir Favorito
Otras Versiones

Mostrar Diagramas
Desfile Automático
Manipular Acordes
Formato del Texto


Héroes del Silencio
la Chispa Adecuada
calidad:
hero0353
AUTOR: Pedro Andreu, Alan Boguslavsky, Enrique Bunbury, Joaquin Cardiel, Janet Valdivia
ALBUM: Avalancha (1995)
Enviado por Andres
Song: La Chispa Adecuada
Album: Avalancha
Artist: Héroes del silencio
(Enrique Bunbury · Juan Valdivia · Pedro Andreu · Joaquin Cardiel)

Tono: E A D G B E

|--------------------------------|------------1-----------0-------|
|--------------------------------|----------------------------1---|
|--------------------------------|--------2-----------2-----------|
|--------------------------------|--------------------------------|
|--------------------3---3·--5---|-5------------------------------|
|--------------------------------|--------------------------------|

|------------1-------0-----------|--------------------------------|
|--------1---------------1-------|------------------------1-------|
|--------------------------------|------------3-------------------|
|--------------------------------|--------3-----------3-----------|
|0---------------------------0---|1-------------------------------|
|--------------------------------|--------------------------------|

|--------------------------------|------------1-----------0-------|
|------------1-------------------|----------------------------1---|
|0-------------------------------|--------2-----------2-----------|
|3-------3-----------------------|--------------------------------|
|--------------------3---3·--5---|5-------------------------------|
|--------------------------------|--------------------------------|

|------------0-------0-----------|--------------------------------|
|--------1---------------1-------|------------------------1-------|
|--------2-----------------------|------------3-------------------|
|--------------------------------|--------3-----------3-----------|
|0---------------------------0---|1-------------------------------|
|--------------------------------|--------------------------------|

|--------------------------------|------------1-----------0-------|
|1-----------1-------------------|----------------------------1---|
|3-------------------------------|--------2-----------2-----------|
|--------3-----------------------|--------------------------------|
|--------------------3---3·--5---|5-------------------------------|
|--------------------------------|--------------------------------|

|------------1-------0-----------|--------------------------------|
|--------1---------------1-------|------------------------1-------|
|--------------------------------|------------3-------------------|
|--------------------------------|--------3-----------3-----------|
|0---------------------------0---|1-------------------------------|
|--------------------------------|--------------------------------|

|--------------------------------|------------1-----------0-------|
|------------1-------------------|----------------------------1---|
|0-------------------------------|--------2-----------2-----------|
|3-------3-----------------------|--------------------------------|
|--------------------3---3·--5---|5-------------------------------|
|--------------------------------|--------------------------------|

|------------5-------0-----------|--------------------------------|
|------------5-----------1-------|------------------------1-------|
|--------5-----------------------|------------3-------------------|
|--------------------------------|--------3-----------3-----------|
|0---------------------------0---|1-------------------------------|
|--------------------------------|--------------------------------|


|1-----------1---0---------------|--------------------------------|
|3-------------------3-----------|--------------------------------|
|------------------------2-------|--------------------------------|
|----------------------------3---|0-------------------------------|
|--------------------------------|--------------------------------|
|--------------------------------|--------------------------------|
 (·) Deslizas hasta la próxima nota

Definimos Acordes

Dm Am Bb C F F#m D G A --1-- --0-- --1-- --3-- --1-- --2-- --2-- --3-- --5-- --3-- --1-- --3-- --5-- --1-- --2-- --3-- --3-- --5-- --2-- --2-- --3-- --5-- --2-- --2-- --2-- --4-- --6-- --0-- --2-- --3-- --5-- --3-- --4-- --0-- --5-- --7-- --X-- --0-- --1-- --3-- --3-- --4-- --X-- --5-- --7-- --X-- --X-- --X-- --X-- --1-- --2-- --X-- --3-- --5--
Dm Am Bb Las palabras fueron avispas
C Dm Y las calles como dunas
Am Bb F Cuando aun te espero llegar
Dm Am Bb En un ataud guardo tu tacto
C Y una corona
Dm Con tu pelo enmarañado
Am Queriendo encontrar
Bb F Un arcoiris infinito
D - F#m - G - A
Dm Am Bb Mis manos que aun son de hueso
C Dm Y tu vientre sabe a pan
Am Bb F La catedral es tu cuerpo
Dm Am Bb Eras verano y mil tormentas
C Yo el leon
Dm Que sonrie a las paredes
Am Que he vuelto a pintar
Bb F Del mismo color
D F#m G A No se distinguir entre besos y raices
D F#m G A no se distinguir lo complicado de lo simple
D F#m G A y ahora estas en mi lista de promesas a olvidar
D F#m G A todo arde si le aplicas la chispa adecuada
Dm - Am - Bb - C
Dm - Am - Bb - F
Dm - Am - Bb - C
Dm - Am - Bb - F
Dm Am Bb El fuego que era a veces propio
C la ceniza siempre ajena
Dm Am Bb Blanca esperma resbalando
F por la espina dorsal
Dm Am Bb ya somos mas viejos y sinceros
C y que mas da?
Dm si miramos la laguna
Am Bb como llama a la eternidad
F de la ausencia
D F#m G A No se distinguir entre besos y raices
D F#m G A no se distinguir lo complicado de lo simple
D F#m G A y ahora estas en mi lista de promesas a olvidar
D F#m G A todo arde si le aplicas la chispa adecuada
Dm - Am - Bb - C
Dm - Am - Bb - F
Dm - Am - Bb - C
Dm - Am - Bb - F ··················································· · Esta es la idea de la cancion, el ritmo es Rock · · ritmico con solo unas pocas modificaciones es · · Decir : Dos rasgueos abajo, Dos rasgueos arriba · · Un rasgueo Abajo. En las notas que estan sin · · letra (Escepto la linea sola) es: Tres rasgueos · · Abajo y Un Rasgueo Arriba. Espero que esto les · · sirva demasiado, Cualquier duda, sugerencia, o · · Comentario, Soy Matews y pueden hacermelo saber · · Mi correo Es Kroth@atame.org · ··················································· Larga vida al Hard Rock Y al Heavy Metal
Este fichero es trabajo propio de su transcriptor y representa su interpretación personal de la canción. El material contenido en esta página es
para exclusivo uso privado, por lo que se prohibe su reproducción o retransmisión, así como su uso para fines comerciales.
© LaCuerda.net · Aviso Legal · Privacidad