Tablatura para Guitarra de Héroes del Silencio: Entre dos tierras
Conexión · Inscripción
Letras y Acordes
Pantalla Completa
Imprimir
Versión Texto
Añadir Favorito
Otras Versiones

Mostrar Diagramas
Desfile Automático
Manipular Acordes
Formato del Texto

Héroes del Silencio
Entre dos tierras(TAB)
calidad:
hero0232
AUTOR: Pedro Andreu, Enrique Bunbury, Joaquin Cardiel, Janet Valdivia
ALBUM: Senderos de Traicion (1990)
Enviado por manuel
Comienza golpeando en Bm con delay y chorus para darle un poco
de cuerpo a la canción.

      Bm
E |---7---------|
B |---7---------|
G |---7---------|
D |---9---------|
A |---9---------|
E |---7---------|



Ahora golpea hacia abajo, hacia arriba y otra vez hacia abajo en
cada Bm, pero tb he visto a Valdiviaen algún video hacerlo solo
hacia abajo, eso queda a tu elección.


      Bm
E |---7------------------|---7------------------|
B |---7------------------|---7------------------|
G |---7------------------|---7------------------|
D |---9------------------|---9------------------|
A |---9------------------|---9------------------|
E |---7------------------|---7------------------|

      Bm                     G
E |---7------------------|---3------------------|
B |---7------------------|---3------------------|
G |---7------------------|---4------------------|
D |---9------------------|---5------------------|
A |---9------------------|---5------------------|
E |---7------------------|---3------------------|

      Bm
E |---7------------------|---7------------------|
B |---7------------------|---7------------------|
G |---7------------------|---7------------------|
D |---9------------------|---9------------------|
A |---9------------------|---9------------------|
E |---7------------------|---7------------------|

      Bm                     A
E |---7------------------|---5------------------|
B |---7------------------|---5------------------|
G |---7------------------|---6------------------|
D |---9------------------|---7------------------|
A |---9------------------|---7------------------|
E |---7------------------|---5------------------|

Ahora ya puedes quitar el Delay, deja el Chorus y
rasga dos veces todo:

      Bm
E |---7-7-7-7-7-7-7-7----|---7-7-7-7-7-7-7-7----|
B |---7-7-7-7-7-7-7-7----|---7-7-7-7-7-7-7-7----|
G |---7-7-7-7-7-7-7-7----|---7-7-7-7-7-7-7-7----|
D |---9-9-9-9-9-9-9-9----|---9-9-9-9-9-9-9-9----|
A |---9-9-9-9-9-9-9-9----|---9-9-9-9-9-9-9-9----|
E |---7-7-7-7-7-7-7-7----|---7-7-7-7-7-7-7-7----|

      Bm                     G
E |---7-7-7-7-7-7-7-7----|---3-3-3-3-3----------|
B |---7-7-7-7-7-7-7-7----|---3-3-3-3-3----------|
G |---7-7-7-7-7-7-7-7----|---4-4-4-4-4----------|
D |---9-9-9-9-9-9-9-9----|---5-5-5-5-5----------|
A |---9-9-9-9-9-9-9-9----|---5-5-5-5-5----------|
E |---7-7-7-7-7-7-7-7----|---3-3-3-3-3----------|


      Bm
E |---7-7-7-7-7-7-7-7----|---7-7-7-7-7-7-7-7----|
B |---7-7-7-7-7-7-7-7----|---7-7-7-7-7-7-7-7----|
G |---7-7-7-7-7-7-7-7----|---7-7-7-7-7-7-7-7----|
D |---9-9-9-9-9-9-9-9----|---9-9-9-9-9-9-9-9----|
A |---9-9-9-9-9-9-9-9----|---9-9-9-9-9-9-9-9----|
E |---7-7-7-7-7-7-7-7----|---7-7-7-7-7-7-7-7----|

      Bm                     A
E |---7-7-7-7-7-7-7-7----|---5-5-5-5-5----------|
B |---7-7-7-7-7-7-7-7----|---5-5-5-5-5----------|
G |---7-7-7-7-7-7-7-7----|---6-6-6-6-6----------|
D |---9-9-9-9-9-9-9-9----|---7-7-7-7-7----------|
A |---9-9-9-9-9-9-9-9----|---7-7-7-7-7----------|
E |---7-7-7-7-7-7-7-7----|---5-5-5-5-5----------|


Ahora viene el primer arpegio de la intro:

      Bm                     F#
E |----------------------|-----------------------|
B |----------------------|-----------------------|
G |-----------7----------|-----------9-----------|
D |-----9-------9--------|-----7-------7---------|
A |---9---9-------9------|---9---9-------9-------|
E |----------------------|-----------------------|


      A                      G
E |----------------------|-----------------------|
B |----------------------|-----------------------|
G |-----------9----------|-----------7-----------|
D |-----7-------7--------|-----5-------5---------|
A |---7---7-------7------|---5---5-------5-------|
E |----------------------|-----------------------|


En el verso los arpegios cambian:


    Te puedes vender...   Cualquier oferta es buena...

     Bm                      F#m
E |----------2-----------|----------2-----------|
B |------------3---------|------------2---------|
G |------4-------4-------|------2-------2-------|
D |----4-----------4-----|----4-----------4-----|
A |--2-------------------|--4-------------------|
E |----------------------|----------------------|

   Si quieres poder...                     UHHHH
     A                      G
E |----------0-----------|----------3-----------|
B |------------2---------|------------3---------|
G |------2-------2-------|------4-------4-------|
D |----2-----------2-----|----5-----------5-----|
A |--0-------------------|--5-------------------|
E |----------------------|----------------------|


en el puente:

   Dejamé...

1ª guitarra
Bm                     Bm
E |---2-2-2-2-2-2-2-2----|---2-2-2-2-2-2-2-2----|
B |---3-3-3-3-3-3-3-3----|---3-3-3-3-3-3-3-3----|
G |---4-4-4-4-4-4-4-4----|---4-4-4-4-4-4-4-4----|
D |---4-4-4-4-4-4-4-4----|---4-4-4-4-4-4-4-4----|
A |---2-2-2-2-2-2-2-2----|---2-2-2-2-2-2-2-2----|
E |----------------------|----------------------|



      D                      G
E |---2-2-2-2-2-2-2-2----|---3-3-3-3-3-3-3-3----|
B |---3-3-3-3-3-3-3-3----|---0-0-0-0-0-0-0-0----|
G |---2-2-2-2-2-2-2-2----|---0-0-0-0-0-0-0-0----|
D |---0-0-0-0-0-0-0-0----|---0-0-0-0-0-0-0-0----|
A |----------------------|---2-2-2-2-2-2-2-2----|
E |----------------------|---3-3-3-3-3-3-3-3----|

(la segunda guitarra hace lo mismo pero con distorsión
y los acordes en quintas)

otra vez esto, pero una sola vez todo:


      Bm
E |---7-7-7-7-7-7-7-7----|---7-7-7-7-7-7-7-7----|
B |---7-7-7-7-7-7-7-7----|---7-7-7-7-7-7-7-7----|
G |---7-7-7-7-7-7-7-7----|---7-7-7-7-7-7-7-7----|
D |---9-9-9-9-9-9-9-9----|---9-9-9-9-9-9-9-9----|
A |---9-9-9-9-9-9-9-9----|---9-9-9-9-9-9-9-9----|
E |---7-7-7-7-7-7-7-7----|---7-7-7-7-7-7-7-7----|

      Bm                     G
E |---7-7-7-7-7-7-7-7----|---3-3-3-3-3----------|
B |---7-7-7-7-7-7-7-7----|---3-3-3-3-3----------|
G |---7-7-7-7-7-7-7-7----|---4-4-4-4-4----------|
D |---9-9-9-9-9-9-9-9----|---5-5-5-5-5----------|
A |---9-9-9-9-9-9-9-9----|---5-5-5-5-5----------|
E |---7-7-7-7-7-7-7-7----|---3-3-3-3-3----------|


      Bm
E |---7-7-7-7-7-7-7-7----|---7-7-7-7-7-7-7-7----|
B |---7-7-7-7-7-7-7-7----|---7-7-7-7-7-7-7-7----|
G |---7-7-7-7-7-7-7-7----|---7-7-7-7-7-7-7-7----|
D |---9-9-9-9-9-9-9-9----|---9-9-9-9-9-9-9-9----|
A |---9-9-9-9-9-9-9-9----|---9-9-9-9-9-9-9-9----|
E |---7-7-7-7-7-7-7-7----|---7-7-7-7-7-7-7-7----|

      Bm                     A
E |---7-7-7-7-7-7-7-7----|---5-5-5-5-5----------|
B |---7-7-7-7-7-7-7-7----|---5-5-5-5-5----------|
G |---7-7-7-7-7-7-7-7----|---6-6-6-6-6----------|
D |---9-9-9-9-9-9-9-9----|---7-7-7-7-7----------|
A |---9-9-9-9-9-9-9-9----|---7-7-7-7-7----------|
E |---7-7-7-7-7-7-7-7----|---5-5-5-5-5----------|


luego viene otra estrofa del verso,

el puente

y llegamos al estribillo:


      Entre dos tierras...
      Fm    Cm               Cm
E |---1-----------3-------|----------3----------|
B |---1-------------4-----|------------4--------|
G |---1---------5-----5---|-------5------5------|
D |---3-------5-----------|-----5---------------|
A |---3-----3-------------|---3-----------------|
E |---1-------------------|---------------------|

      Gm                      Gm
E |---------3-------------|----------3----------|
B |-----------3-----------|------------3--------|
G |-------3-----3---------|-------3------3------|
D |-----5-----------------|-----5---------------|
A |---5-------------------|---5-----------------|
E |-----------------------|---------------------|

      Cm                      Cm
E |---------3-------------|----------3----------|
B |-----------4-----------|------------4--------|
G |-------5-----5---------|-------5------5------|
D |-----5-----------------|-----5---------------|
A |---3-------------------|---3-----------------|
E |-----------------------|---------------------|

      Gm                      Gm
E |---------3-------------|----------3----------|
B |-----------3-----------|------------3--------|
G |-------3-----3---------|-------3------3------|
D |-----5-----------------|-----5---------------|
A |---5-------------------|---5-----------------|
E |-----------------------|---------------------|


      Gm  F#m Fm              Cm
E |-----------------------|----------3----------|
B |-----------------------|------------4--------|
G |-----------------------|-------5------5------|
D |---5---4---3-----------|-----5---------------|
A |---5---4---3-----------|---3-----------------|
E |---3---2---1-----------|---------------------|

      Cm                      Gm
E |----------3------------|----------3----------|
B |------------4----------|------------3--------|
G |-------5------5--------|-------3------3------|
D |-----5-----------------|-----5---------------|
A |---3-------------------|---5-----------------|
E |-----------------------|---------------------|

      Gm                      G
E |---3-3-3-3-3-3-3-------|---3-3-3-3-3-3-3-3---|
B |---3-3-3-3-3-3-3-------|---3-3-3-3-3-3-3-3---|
G |---3-3-3-3-3-3-3-------|---4-4-4-4-4-4-4-4---|
D |---5-5-5-5-5-5-5-------|---5-5-5-5-5-5-5-5---|
A |---5-5-5-5-5-5-5-------|---5-5-5-5-5-5-5-5---|
E |---3-5-5-5-5-5-5-------|---3-3-3-3-3-3-3-3---|


Y basicamente esta es la canción, ya vosotros la escuchais
y os adaptais a la estructura.No pongo el solo pq estoy
cansado de hacer rayitas y poner numeritos, ya lo subiré...
o no.

para dudas, quejas y demás: tristeza-etilika@hotmail.com
Envía el tono de "Entre dos tierras" a tu celular/móvil
Este fichero es trabajo propio de su transcriptor y representa su interpretación personal de la canción. El material contenido en esta página es
para exclusivo uso privado, por lo que se prohibe su reproducción o retransmisión, así como su uso para fines comerciales.
© LaCuerda.net · Aviso Legal · Privacidad