Tablatura para Guitarra de Héroes del Silencio: el Estanque
Conexión · Inscripción
Letras y Acordes
Pantalla Completa
Imprimir
Versión Texto
Añadir Favorito
Otras Versiones

Mostrar Diagramas
Desfile Automático
Manipular Acordes
Formato del Texto

Héroes del Silencio
el Estanque(TAB)
calidad:
hero0196
AUTOR: Pedro Andreu, Enrique Bunbury, Joaquin Cardiel, Janet Valdivia
ALBUM: Canciones 1984-1996: Best of Heroes del Silencio (1988)
Enviado por Tonatiuh
Gran tema del Maestro Valdivia,
uno de los mejores solos de las canciones de Héroes.
Este tab lo saque de un video inédito de Héroes en el año ’92,
eso creo, y creo que así es como Valdivia lo toca originalmente,
se escucha bien, solo escuchen la rola para guiarse.
Dudas o cualquier otra cosa: apuesta_rock_roll@hotmail.com



Intro
Guitarra acústica    Dm   Am



        C             Dm            Am       C
e|-----------------------------------------------|
B|--------------------------------6-5-5----------|
G|-----------------------5/7----7-------7-5------|
D|-----------------5----------7--------------5---|
A|------------5h7-----5--------------------------|
E|--5-7-8--8-------------------------------------|

            Dm               Am
e|------------------------------8---7---5--------|
B|-------------------------6-5----5---5---5------|
G|--------5-7--7-5-7-----7-------------------7-5-|
D|--5-5h7--------------7-------------------------|
A|-----------------------------------------------|
E|-----------------------------------------------|

    C               Dm
e|-------------------------------------|
B|-------------------------------------|
G|----------5---------7---7---7---7----|
D|--5-5h7p5---5h7p5--7-7-7-7-7-7-7-7---|
A|------------------5---5---5---5------|
E|-------------------------------------|

    G           Em             F
e|--------8p7-----------------------------------------------|
B|--8-(8)-----8-5-8p7------5-6-5-------8-5--5-6-5-------8-5-|
G|--7-----------------7-4--x-----5---5------x-----5---5-----|
D|--5----------------------x-------7--------x-------7-------|
A|----------------------------------------------------------|
E|----------------------------------------------------------|
           Em
e|-------------|
B|--5-6-5------|
G|--x------9---|
D|--x------9---|
A|---------7---|
E|-------------|

          Bm                           Em             Bm
e|-------------------------------------------------------|
B|------8-7-7-5---10---10---------------------------8-7--|
G|----9---------7----7----7--------7-9--9-7-9/----9------|
D|--9------------------------7-7h9--------------9--------|
A|-------------------------------------------------------|
E|-------------------------------------------------------|
                       D               Em
e|--10---9---7------------------------------------------|
B|-----7---7---7-7p5------------------------------------|
G|-------------------7---------7---------9---9---9---9--|
D|---------------------7-7h9p7---7h9p7--9-9-9-9-9-9-9-9-|
A|-------------------------------------7---7---7---7----|
E|------------------------------------------------------|

    G           Em             F
e|--------8p7-----------------------------------------------|
B|--8-(8)-----8-5-8p7------5-6-5-------8-5--5-6-5-------8-5-|
G|--7-----------------7-4--x-----5---5------x-----5---5-----|
D|--5----------------------x-------7--------x-------7-------|
A|----------------------------------------------------------|
E|----------------------------------------------------------|
           Em
e|-------------|
B|--5-6-5------|
G|--x------9---|
D|--x------9---|
A|---------7---|
E|-------------|
            *Aquí entra la batería...


          Bm       D                 Em          Las leyes salvajes......
e|--------------------------------------------------|
B|------8-7-7-5---10---10---------------------------|
G|----9---------7----7----7--------7-9-9b-9-7-9-----|
D|--9------------------------7-7h9------------------|
A|--------------------------------------------------|
E|--------------------------------------------------|

          Bm          D                 Em
e|---------------------------------------------|
B|------8-7-7-7-7p5----------------------------|
G|----9-----4-4-----7-777777-------7-9--9-7-9--|
D|--9-----------------777777-7-7h9-------------|
A|--------------------555555-------------------|
E|---------------------------------------------|


     G            Em             F
e|----------8p7-------------------------------------------------|
B|--(8)-(8)-----8-5-8p7------5-6-5---------8-5--5-6-5-------8-5-|
G|--(7)-----------------7-4--x-----5---5--------x-----5---5-----|
D|--(5)----------------------x-------7---7------x-------7-------|
A|--------------------------------------------------------------|
E|--------------------------------------------------------------|

           Em
e|------------------|
B|--5-6-5-----------|
G|--x------9--9-7-9-|
D|--x------9--------|
A|---------7--------|
E|------------------|


     G            Em             F
e|----------8p7-------------------------------------------------|
B|--(8)-(8)-----8-5-8p7------5-6-5---------8-5--5-6-5-------8-5-|
G|--(7)-----------------7-4--x-----5---5--------x-----5---5-----|
D|--(5)----------------------x-------7---7------x-------7-------|
A|--------------------------------------------------------------|
E|--------------------------------------------------------------|

           Am          A#          Dm
e|---------5-5-5-5-5---6-6-6-6-6---5~--|
B|--5-6-5--5--5-5-5-5--6--6-6-6-6--6~--|
G|--x------5-----5---5-7-----7---7-7~--|
D|--x------7-----------8-----------7~--|
A|---------7-----------8-----------5~--|
E|---------5-----------6-----------5~--|


          Am      C               Dm          Solo es este.....
e|---------------------------------------------|
B|------6-5-5-----8---8------------------------|
G|----7-------7-5---5---5-------5-7-7-7--7-5-7-|
D|--7---------------------5-5h7----------------|
A|---------------------------------------------|
E|---------------------------------------------|

          Am                   C
e|-----------8---7---5-----------------------------|
B|------6-5----5---5---5-5-------------------------|
G|----7--------------------7-5-------5---5-7-7--5--|
D|--7--------------------------5-5h7---7-----------|
A|-------------------------------------------------|
E|-------------------------------------------------|

     G            Em             F
e|----------8p7-------------------------------------------------|
B|--(8)-(8)-----8-5-8p7------5-6-5---------8-5--5-6-5-------8-5-|
G|--(7)-----------------7-4--x---------5--------x-----5---5-----|
D|--(5)----------------------x-----6-7---7------x-------7-------|
A|--------------------------------------------------------------|
E|--------------------------------------------------------------|

           Am          A#          Dm
e|---------5-5-5-5-5---6-6-6-6-6---5~--|
B|--5-6-5--5--5-5-5-5--6--6-6-6-6--6~--|
G|--x------5-----5---5-7-----7---7-7~--|
D|--x------7-----------8-----------7~--|
A|---------7-----------8-----------5~--|
E|---------5-----------6-----------5~--|
Envía el tono de "el Estanque" a tu celular/móvil
Este fichero es trabajo propio de su transcriptor y representa su interpretación personal de la canción. El material contenido en esta página es
para exclusivo uso privado, por lo que se prohibe su reproducción o retransmisión, así como su uso para fines comerciales.
© LaCuerda.net · Aviso Legal · Privacidad