Tablatura para Guitarra de Héroes del Silencio: Con Nombre de Guerra
Conexión · Inscripción
Letras y Acordes
Pantalla Completa
Imprimir
Versión Texto
Añadir Favorito
Otras Versiones

Mostrar Diagramas
Desfile Automático
Manipular Acordes
Formato del Texto

Héroes del Silencio
Con Nombre de Guerra(TAB)
calidad:
hero0102
AUTOR: Pedro Andreu, Enrique Bunbury, Joaquin Cardiel, Janet Valdivia
ALBUM: Senderos de Traicion (1990)
Miguel Alejandro Díaz Palmerín
México


INTRO 
       G                              G
w/drums & bass
|----------------------------------|--7-7-8p7-7-7-7-7-7-7-7-7-7-7-7-7--8-8-8-8p7--7-7-7-7-7-7--------|
|----------------------------------|--8-8-8-8-8-8-8-8-8-8-8-8-8-8-8-8--8-8-8-8-8--8-8-8-8-8-8--------|
|----------------------------------|--7-7-7-7-7-7-7-7-7-7-7-7-7-7-7-7--7-7-7-7-7--7-7-7-7-7-7--------|
|----------------------------------|-----------------------------------------------------------------|
|----------------------------------|-----------------------------------------------------------------|
|----------------------------------|-----------------------------------------------------------------|


Verse 1
 
 G                                    C                      Em                      D
 en_tra de_spacio__ que__ na_die__ oi__ga tu__s paso___S  mientra__s tanto__ si los nervios no traicionan
|----------------------------------------------------------------------------------------------------|

             G                          Bm                        Em                           Bm
 todo ira_____ bie___n,  y__ deje_mo__s  lo_s  be_so___s  para  lo__s  e_na_mo_rado__s, y pense__mos e__n
|----------------------------------------------------------------------------------------------------|

                         Em                                  Bm                      D
 lo__ nuestro__ que por e__so__ te__he pagado__, aunque__ esta___ no_che__, sea_s solo_ mercanci_a____ 
|----------------------------------------------------------------------------------------------------|

  D                  D          Dsus         C              Em                Bm
 para_____ mi____
|-----------------|--3-3-3-3-3--2-2-2-2-2-2--0-0-0-0-0-0-|-------------------|-----------------------|
|-----------------|--3-3-3-3-3--3-3-3-3-3-3--1-1-1-1-1-1-|--5--------------5-|-7-------------7-------|
|-----------------|--2-2-2-2-2--2-2-2-2-2-2--0-0-0-0-0-0-|-----4--------7----|---7--------7----------|
|-----------------|--------------------------------------|--------5---5------|-----9---9-------------|
|-----------------|--------------------------------------|-------------------|-----------------------|
|-----------------|--------------------------------------|-------------------|-----------------------|


 Em                             C                                  D
|-7------------7-7----------7-|-----------------------------------|----------------------------------|
|----8-------8-----8------8---|--8--------------8-8------------8--|-7--7--7--7--7h8p7-7-7-7-7--------|
|-------9--9---------9--9-----|-----7---------7-----7--------7----|-7--7--7--7--7-7-7-7-7-7-7--------|
|-----------------------------|--------10--10---------10--10------|-7--7--7--7--7-7-7-7-7-7-7--------|
|-----------------------------|-----------------------------------|----------------------------------|
|-----------------------------|-----------------------------------|----------------------------------|


Verse 2

 G                                           C                 Em                                   D
 dejo__ en tu___s mano___s lo_ que he_mos aco___rdado la___ llu___via__ de hace un rato__ ahora solo___
|----------------------------------------------------------------------------------------------------|

                       G                             Bm                   Em                         Bm
 ne_ce_sito_ des_cansa___r,  y__ deje_mo__s  que lo__s sueño__s se apod_ere_n del deseo___ reco_rdemo__s
|----------------------------------------------------------------------------------------------------|

                         Em                                     Bm                  D
 que lo__ nuestro__ se me o_lvidara___al momento__ aunque__ esta___ no_che__, sea_ solo__ unos billete__S 
|----------------------------------------------------------------------------------------------------|

  D                  D          Dsus         C              Em                Bm
 para_____ ti____
|-----------------|--3-3-3-3-3--2-2-2-2-2-2--0-0-0-0-0-0-|-------------------|-----------------------|
|-----------------|--3-3-3-3-3--3-3-3-3-3-3--1-1-1-1-1-1-|--5--------------5-|-7-------------7-------|
|-----------------|--2-2-2-2-2--2-2-2-2-2-2--0-0-0-0-0-0-|-----4--------7----|---7--------7----------|
|-----------------|--------------------------------------|--------5---5------|-----9---9-------------|
|-----------------|--------------------------------------|-------------------|-----------------------|
|-----------------|--------------------------------------|-------------------|-----------------------|


 Em                             C                                  D
|-7------------7-7----------7-|-----------------------------------|-----------------10---------------|
|----8-------8-----8------8---|--8--------------8-8------------8--|-7--7--7--7--7h8----8-7-8---------|
|-------9--9---------9--9-----|-----7---------7-----7--------7----|-7--7--7--7-----------------------|
|-----------------------------|--------10--10---------10--10------|-7--7--7--7-----------------------|
|-----------------------------|-----------------------------------|----------------------------------|
|-----------------------------|-----------------------------------|----------------------------------|

  G                         
|--------------------------|
|-8p7----------------------|
|-----9--7-----------------|
|----------10-9-7----------|
|------------------10-9-7--|
|--------------------------|


Solo

gtr.1
|------3-----|---------|-----2--3-|---------|-----3---|---------|-----0--5-|-----------|-----3-------|
|----5----5--|---------|---3------|---------|---5---5-|---------|---3------|-----------|---5----5----|
|--4---------|---------|-2--------|---------|-4-------|---------|-2--------|-----------|-4-----------|
|------------|---------|----------|---------|---------|---------|----------|-----------|-------------|
|------------|---------|----------|---------|---------|---------|----------|-----------|-------------|
|------------|---------|----------|---------|---------|---------|----------|-----------|-------------|

gtr.2
|------------|-----2-0-|----------|-------3-|---------|-----2-0-|----------|-----------|-------------|
|------------|---3-----|----------|-----3---|---------|---3-----|----------|-----5--3--|-------------|
|------------|-4-------|----------|---5-----|---------|-4-------|----------|---5-------|-------------|
|------------|---------|----------|-5-------|---------|---------|----------|-5---------|-------------|
|------------|---------|----------|---------|---------|---------|----------|-----------|-------------|
|------------|---------|----------|---------|---------|---------|----------|-----------|-------------|



gtr.1
|------------|---------|----------|-----3---|---------|-------3-|--------3-|--------3--|--------3----|
|------------|-----5-3-|----------|---5---5-|---------|-----3---|------3---|------3----|------3------|
|------------|---5-----|----------|-4-------|---------|---5-----|----5-----|----5------|----5--------|
|------------|-5-------|----------|---------|---------|-5-------|--5-------|--5--------|--5----------|
|------------|---------|----------|---------|---------|---------|----------|-----------|-------------|
|------------|---------|----------|---------|---------|---------|----------|-----------|-------------|

gtr.2                                                    C-D       D       C-D         D
|-----2--0---|---------|-----2-3--|---------|-----0-5-|----------------------------------------------|
|---3--------|---------|---3------|---------|---3-----|----------------------------------------------|
|-4----------|---------|-2--------|---------|-2-------|----------------------------------------------|
|------------|---------|----------|---------|---------|----------------------------------------------|
|------------|---------|----------|---------|---------|----------------------------------------------|
|------------|---------|----------|---------|---------|----------------------------------------------|



  D                  Em                  Bm              Em                            C
gtr.1                
|-8p7--------------|--------------------|-3-------------|----------------------------|---------------|
|-----10--8-----8--|------------------3-|------3--0h3h5-|5---7/8--10p8p7-------------|------------8--|
|------------7-----|-9---9/-------2h4---|---------------|-----------------9------7---|-7/9-----9-----|
|------------------|---------2h4--------|---------------|-------------------9-/9---9-|------10-------|
|------------------|--------------------|---------------|----------------------------|---------------|
|------------------|--------------------|---------------|----------------------------|---------------|

                  D
|---------------|------------------10-------------|
|---------------|-------------7h8------8--7---7h8-|
|--9--9p7h9--5--|-5/7----7------------------------|
|---------------|------7---7----------------------|
|---------------|---------------------------------|
|---------------|---------------------------------|



Verse 3

 G                                           C                 Em                                   D
 pienso en lo__s año__s que_lle_va__s gue___rre_a__ndo_ con un no__mbre__ po_r bandera___ ahora_ solo_ quiero
|----------------------------------------------------------------------------------------------------|

                    G                            Bm              Em                             Bm
 oirlo__una_vez má____s,  y__ deje_mo__s  que lo__ cierto__sea__ lo que__ ima__gina_mo__s reco_rdemo__s
|----------------------------------------------------------------------------------------------------|

                         Em                              Bm                                   D
 que lo__ nuestro__ todavi__a no__ha__acabado _ aunque__ por esta___ no_che__, po__r esta___ no__che___
|----------------------------------------------------------------------------------------------------|

 D            D                                    G    
 uh uh_______ uh uh________ nos podemo__s des_pedi____r.
|----------------------------------------------------------------------------------------------------|


G
pienso en los años
             C
que llevas guerreando
        Em
con un nombre por bandera
       D                         G
ahora solo quiero oirlo una vez más.

            Bm               Em
y dejemos que lo cierto sea lo que imaginamos
      Bm                       Em
recordemos que lo nuestro todavia no ha acabado
        Bm                         D
aunque por esta noche... por esta noche
                  G
nos podemos despedir.
Envía el tono de "Con Nombre de Guerra" a tu celular/móvil
Este fichero es trabajo propio de su transcriptor y representa su interpretación personal de la canción. El material contenido en esta página es
para exclusivo uso privado, por lo que se prohibe su reproducción o retransmisión, así como su uso para fines comerciales.
© LaCuerda.net · Aviso Legal · Privacidad