Tablatura para Guitarra de Hermética: Tu Eres Su Seguridad
Conexión · Inscripción
Letras y Acordes
Pantalla Completa
Imprimir
Versión Texto
Añadir Favorito
Otras Versiones

Mostrar Diagramas
Desfile Automático
Manipular Acordes
Formato del Texto

Hermética
Tu Eres Su Seguridad(TAB)
calidad:
hrmt0105
AUTOR: Hermética  corregir
ALBUM: Hermeica
Enviado por alejandro
Tu Eres Su Seguridad - Solo - por Antonio Romano
Transcripto por alejandro

Aclaración: Las posiciones quizás no son las mismas que usa él, pero son las más comodas
(por lo menos para mí).
Esta es la versión del disco 'Hermética', en vivo hacía otro solo distinto, pero con la misma
onda.

Notas: h = hammer-on
       p = pull-off
       / = arrastrar hasta esa nota

La parte que dice 'Muletilla #1' es un yeite que usa el Tano Romano en el 95% de sus solos,
una vez que lo toquen se van a dar cuenta, está en casi todos.

Los fraseos que están entre paréntesis es porque se repiten la cantidad de vez indicada abajo.


  Melodía antes del solo
E|--------------------------------------------:---------------------------------------------:
B|--------------------------------------------:---------------------------------------------:
G|--------------------------------------------:---------------------------------------------:
D|---------------9-------------------9-10-----:--12-10-9----10-9-------9--------------------:
A|-------9-10-12-----10-9-10-9------------12--:----------12------12-10---12-10-9-12-10-9----:
E|-10-12------------------------12------------:------------------------------------------12-:

  Subida #1
E|--------------------------------------------------------------------------------------------------------------------------|
B|--ENMUDECIENDO CON MANO DERECHA-------------------------------------------------------------------------------------------|
G|--------------------------------------------------------------------------------------------------------------------------|
D|-----------------------------------------------------------------------9-9--9-9-------------------------------------------|
A|----------------9-9--9-9---10-10--10-10---11-11--11-11---12-12--12-12-------------12-12--12-12---10-10--10-10---9-9--9-9--|
E|--12-12--12-12------------------------------------------------------------------------------------------------------------|

  Armonía con el bajo                      Riff Intro
E|---------------------------------------|--------------|
B|---------------------------------------|--------------|
G|---------------------------------------|--------------|
D|---------------------------------------|--------------|
A|--------9-10-12----10-9---10----10-12--|-------5------|
E|--12----------------------8-----8--10--|-0-2-3---3-2--|

SOLO
~~~~

   Muletilla #1                                Yeite #2            Yeite#2 termina c/Muletilla #1
E|--------------:----------------------------(--------------------)-----------------:-----------------|
B|--------------:-7-8-10(12)-10p8h10----8-7--(-7-10-8-7---8-7-----)-10-8-7---8-7----:-----------------|
G|--9(11)-9p7h9-:----------------------------(----------9-----9-7-)--------9-----9-7:9(11)-9-7-9------|
D|--------------:----------------------------(--------------------)-----------------:-----------------|
A|--------------:----------------------------(-----X-2------------)-----------------:-----------------|
E|--------------:----------------------------(--------------------)-----------------:-----------------|

     Yeite #3                           Bajada #1                c/                   Muletilla #1
E|-(----------------------------------)--10-8-7-8-7------7-----------------------------------------|
B|-(-0h8p0h7p0h8p0h7p0h8p0h10p0h8p0h7-)-------------10-8---10-8-7-10-8-7---8-7---------------------|
G|-(----------------------------------)----------------------------------9-----9-7-9--9(11)-9-7-9--|
D|-(-----------X-2--------------------)------------------------------------------------------------|
A|-(----------------------------------)------------------------------------------------------------|
E|-(----------------------------------)------------------------------------------------------------|

                                            Subida Final
E|---------------------:------------------|---------------------------12--------14-----|
B|-/7----8-10--8-7-----:------------------|-----------------12-13-12--15(17)-15-17(19)-|
G|-----------------9-7-:-Repite Bajada #1-|--------11-12-14----------------------------|
D|---------------------:--c/ Muletilla #1-|-----14-------------------------------------|
A|---------------------:------------------|--15----------------------------------------|
E|---------------------:------------------|--------------------------------------------|
Envía el tono de "Tu Eres Su Seguridad" a tu celular/móvil
Este fichero es trabajo propio de su transcriptor y representa su interpretación personal de la canción. El material contenido en esta página es
para exclusivo uso privado, por lo que se prohibe su reproducción o retransmisión, así como su uso para fines comerciales.
© LaCuerda.net · Aviso Legal · Privacidad