Letra y Acordes de los Hermanos Carrion: Magia Blanca
Conexión · Inscripción
Letras y Acordes
Pantalla Completa
Imprimir
Versión Texto
Añadir Favorito
Otras Versiones

Mostrar Diagramas
Desfile Automático
Manipular Acordes
Formato del Texto

los Hermanos Carrion
Magia Blanca
calidad:
herm0061
AUTOR: los Hermanos Carrion  corregir
ALBUM: desconocido
Enviado por Richard
Para acompletar el conjunto de hermosas canciones de
Los Hermanos Carrión, no podía faltar... 

Intro:

E|----------------------------------------------------------|
B|----------------------------------------------------------|
G|----------------------------------------------------------|
D|-0-2-4----------------------------------------------------|
A|----------------------------------------------------------|
E|----------------------------------------------------------|

G                D                    A
Tua, tururururu, gua gua, tururururu, gua gua, tururururu,
D
gua pararara, pararararara. 

G                D                    A
Tua, tururururu, gua gua, tururururu, gua gua, tururururu,
D
gua pararara, pararararara. 

                                          A
Magia blanca tu tienes me haz hechizado a mi
                                          D
con tu mirada coqueta con tu manera de hablar
                                          Em
cuando pasando caminas todos te admiran a ti,
 G                   D            A             D
¿por qué eres así?, fíjate en mí, no me hagas sufrir.

           A                        D
Oh magia blanca, magia blanca que te embrujó
               A                               D
magia blanca tienes tú, me haces llorar con tu castigar.

Intro.

G                D                    A
Tua, tururururu, gua gua, tururururu, gua gua, tururururu,
D
gua pararara, pararararara. 

G                D                    A
Tua, tururururu, gua gua, tururururu, gua gua, tururururu,
D
gua pararara, pararararara. 

                                      A
Linda mujer divina, llena de encantos mil
                                            D
sabes que eres hermosa y a todos quieres engreír
                                                 Em
yo estoy dispuesto a humillarme, si esperanza me das
G               D              A            D
si puedes amar, te voy adorar, todo te lo daré.
 
           A                        D
Oh magia blanca, magia blanca que te embrujó
               A                               D
magia blanca tienes tú, me haces llorar con tu castigar.

Solo:

  D                 G                     D
e|---------------------3-----5/7-7-5-3----10-7-5-12/14-14-12-
B|-----------------------5-3-----------5---------------------
G|------------------0----------------------------------------
D|-0-0-0--2-2--4-4-------------------------------------------
A|-----------------------------------------------------------
E|-----------------------------------------------------------

     A                                     D                G
e-10-7-5-3-0-------3---2---0------0h1-0h1--------------------
B-----------(2-1)------------2--2---------------------------0
G----------------2---2---2-----------------0-0-0--2-2--4-4---
D------------------------------------------------------------
A------------------------------------------------------------
E------------------------------------------------------------

                     D                     A
e-3-----5/7-7-5-3----10-7-5-12/14-14-12-10-7-5-3-0-----3---2-
B---5-3-----------5-------------------------------(2)--------
G----------------------------------------------------2---2---
D------------------------------------------------------------
A------------------------------------------------------------
E------------------------------------------------------------
                   D
e---0------0h1-0h1-|
B-----2--2---------|
G-2----------------|  NOTA: Las notas entre paréntesis van en la
D------------------|  versión original del requinto, pero se tocan
A------------------|  muy rápido por lo cual a veces el requinto se
E------------------|  escucha mejor sin ellas. Además existen 2 
                      versiones del requinto (este es el más antiguo). 

          A                        D
Oh magia blanca, magia blanca que te embrujó
               A                               D
magia blanca tienes tú, me haces llorar con tu castigar.

Intro.

G                D                    A
Tua, tururururu, gua gua, tururururu, gua gua, tururururu,
D
gua pararara, pararararara. 

G                D                    A
Tua, tururururu, gua gua, tururururu, gua gua, tururururu,
D
gua pararara, pararararara. 

G                D                    A
Tua, tururururu, gua gua, tururururu, gua gua, tururururu,
D
gua pararara, pararararara.
Envía el tono de "Magia Blanca" a tu celular/móvil
Este fichero es trabajo propio de su transcriptor y representa su interpretación personal de la canción. El material contenido en esta página es
para exclusivo uso privado, por lo que se prohibe su reproducción o retransmisión, así como su uso para fines comerciales.
© LaCuerda.net · Aviso Legal · Privacidad