Tablatura para Guitarra de Heavy Nopal: Es por tí
Conexión · Inscripción
Letras y Acordes
Pantalla Completa
Imprimir
Versión Texto
Añadir Favorito
Otras Versiones

Mostrar Diagramas
Desfile Automático
Manipular Acordes
Formato del Texto

Heavy Nopal
Es por tí(TAB)
calidad:
heav0012
AUTOR: Rodrigo levario
ALBUM: Solito de solista (??)
Enviado por erick
este es el intro de la rola 
la letra esta en el tab que junto a este se encuentra
si les sirve escriban y si no tambien mi correo esta 
arriba suerte con la rola¡


e---------3--3--3--2---------------3--------
b------------3--3----3------0--------0------
g------0-----0--2-----2-0~2------0-----0----
d--0~2-------0--0---------------------------
a-------------------------------------------
e------------------------------3----------3-

e-3-3---------3--3--3--2-------3~2----2---
b---0------------3--3---3----------3---3--
g---0------0-----0--2----2---2------2---2-
d------0~2-----------------0--------------
a-----------------------------------------
e-----------------------------------------

se repite dos veces la primera esta arriba 
la segunda va con unas leves variaciones son solo
rasgeos en vez de punteos, eso sale ecuchando la rola
Envía el tono de "Es por tí" a tu celular/móvil
Este fichero es trabajo propio de su transcriptor y representa su interpretación personal de la canción. El material contenido en esta página es
para exclusivo uso privado, por lo que se prohibe su reproducción o retransmisión, así como su uso para fines comerciales.
© LaCuerda.net · Aviso Legal · Privacidad