Tablatura para Guitarra de Ha.ash: De donde sacas eso
Conexión · Inscripción
Letras y Acordes
Pantalla Completa
Imprimir
Versión Texto
Añadir Favorito
Otras Versiones

Mostrar Diagramas
Desfile Automático
Manipular Acordes
Formato del Texto


Ha.ash
De donde sacas eso(TAB)
calidad:
haas0474
AUTOR: Ha*ash y jose luis Ortega
ALBUM: A Tiempo (2011)
Enviado por Alejandro, basado en Julio
Para kali
(: espero que se anime a cantar conmigo =)

INTRO:


e|-5-----5------5----5----5----|
b|----6-----6-----6----6----6--|
g|-----------------------------|
d|-----------------------------|
a|-----------------------------|
E|-----------------------------|

e|-----------------------------|
b|----8-----8----8---8----8----|
g|-------9----9----9---9----9--|
d|-----------------------------|
a|-----------------------------|
E|-----------------------------|

e|------------------------------|
b|-6---6---6---6---6------------|
g|---7---7---7--7----7----------|
d|------------------------------|
a|------------------------------|
E|------------------------------|

e|------------------------------|
b|-5-----5------5-----5----5----|
g|----5-----5------5-----5----5-|
d|-------------- ---------------|
a|------------------------------|
E|------------------------------|

_______________________________________________
No porque le pregunte a tus amigos como estás,
Ni vaya todo el tiempo a los lugares
Donde creo que vas a estar,
Gm C
No por eso creas que aún te quiero.
F
No porque paso el día revisando el celular, Y vivo convencida que en cualquier minuto Tú me vas a llamar,
Gm C
No por eso creas que me tienes. PRE-CORO: No vayas a pensar,
Dm C
Que te sueño a diario, que te extraño tanto. Sólo es algo normal,
Bb C
Te amé demasiado, pero ya es pasado! Coro:
F
Aunque si te hace sentir mejor pensar
C
Que aún me muero por ti, pues sigue así. A mí ya me das igual, total que más me da,
C F
Si eso aumenta tu ego, sigue creyéndolo.
F
Si te hace sentir mejor soñar
C
Que vamos a regresar, y no te dejo de amar. Sigue creyendo en tu cuento,
C F
Aunque la verdad, no sé de dónde sacas eso! Ah, ah, ah…
F
Seguro estás con ella, Sólo por aparentar que ya me has olvidado Y que no te duele cuando me ves pasar,
Gm C
Ya estás grande para esos juegos. PRE-Coro: No vayas a pensar,
Dm C
Que te sueño a diario, que te extraño tanto. Sólo es algo normal,
Bb C
Te amé demasiado, pero ya es pasado! Coro:
F
Aunque si te hace sentir mejor pensar
C
Que aún me muero por ti, pues sigue así. A mí ya me das igual, total que más me da,
C F
Si eso aumenta tu ego, sigue creyéndolo.
F
Si te hace sentir mejor soñar
C
Que vamos a regresar, y no te dejo de amar. Sigue creyendo en tu cuento,
C
De dónde sacas eso! No vayas a pensar,
Dm C
Que te sueño a diario, que te extraño tanto. Sólo es algo normal,
Bb C
Te amé demasiado, pero ya es pasado!
F
Aunque si te hace sentir mejor pensar
C
Que aún me muero por ti, pues sigue así. A mí ya me das igual, total que más me da,
C F
Si eso aumenta tu ego, sigue creyéndolo.
F
Si te hace sentir mejor soñar
C
Que vamos a regresar, y no te dejo de amar. Sigue creyendo en tu cuento,
C
De dónde sacas eso!
Este fichero es trabajo propio de su transcriptor y representa su interpretación personal de la canción. El material contenido en esta página es
para exclusivo uso privado, por lo que se prohibe su reproducción o retransmisión, así como su uso para fines comerciales.

© LaCuerda.net · Aviso Legal · Privacidad