Tablatura para Bajo de Gustavo Cerati: Puente
Conexión · Inscripción
Letras y Acordes
Pantalla Completa
Imprimir
Versión Texto
Añadir Favorito
Otras Versiones

Mostrar Diagramas
Desfile Automático
Formato del Texto


Gustavo Cerati
Puente(BAJ)
calidad:
gcer0171
AUTOR: Cerati
ALBUM: desconocido
Enviado por Sergio
Intro
G|-----------------|-----------------|-----------------|-----------------|
D|-3~----------0h1~|-3~----------0h1~|-3~----------0h1~|-3~----------0h1~|
A|---------3~------|---------3~------|---------3~------|---------3~------|
E|-----------------|-----------------|-----------------|-----------------|

Verse
G|-----------------|-----------------|-----------------|-----------------|
D|-3~----------0h1~|-3~----------0h1~|-3~----------0h1~|-3~----------0h1~|
A|---------3~------|---------3~-----3|---------3~------|---------3~------|
E|-----------------|-----------------|-----------------|-----------------|

G|-----------------|---------------0-|-----------------|
D|-----1~--0~------|---------3~--1---|-----------------|
A|-------------4~--|-3~--------------|-1~------0~--3~--|
E|-3~--------------|-----------------|-----3~----------|

G|-----------------|-----------------|-----------------|-----------------|
D|-3~----------0h1~|-3~--0~------0h1~|-3~----------0h1~|-3~--0~------0h1~|
A|---------3~------|---------3~----3-|---------3~------|---------3~------|
E|-----------------|-----------------|-----------------|-----------------|

Pre Chorus
G|-----------------|
D|-----1~--0~------|
A|-------------2~--|
E|-3~--------------|

Chorus
G|-----------------|-----------|-----------|-----------|---------------|
D|-----------------|-----------|-----0~----|-----0~----|-----0~------3~|
A|---1~--1~--1~--1~|---1~--1~--|-3~------1~|-3~------1~|-3~------1~----|
E|-1~--3~--1~--3~--|-1~--3~--3~|-----------|-----------|---------------|

2 x 8 Silencio
Bridge
G|-----------------|-----------------|-----------------|-----------------|
D|-3-3-3-531---0h1~|-3-3-3-531---0h1~|-3~----------0h1~|-3~--0~------0h1~|
A|-----------3-----|-----------3-----|---------3~------|---------3~------|
E|-----------------|-----------------|-----------------|-----------------|

Pre Chorus
G|-----------------|
D|---1~5h7-5-3-2---|
A|---------------2~|
E|-3~--------------|

Chorus
G|-----------------|-----------------|     G|-----------------|
D|-----------------|-----------------| x3  D|-----------------|
A|---1~--1~--1~--1~|---1~--1~--1~--1~|     A|---1~--1~--------|
E|-1~--3~--1~--3~--|-1~--3~--1~--3~--|     E|-1~--3~--3~------|

Outro
G|-----------------|-----------------|---------|
D|-----0~----------|-----0~------3~--|-1~------|
A|-3~------1~------|-3~------1~------|---------|
E|-----------------|-----------------|---------|

G|---------------|---------------|---------------|---------------|-------|
D|---------------|---------------|---------------|---------------|-----3~|
A|-1~--0~------3~|-1~--0~------3~|-1~--0~------3~|-1~--0~------3~|-3~----|
E|---------3~----|---------3~----|---------3~----|---------3~----|-------|
Este fichero es trabajo propio de su transcriptor y representa su interpretación personal de la canción. El material contenido en esta página es
para exclusivo uso privado, por lo que se prohibe su reproducción o retransmisión, así como su uso para fines comerciales.
© LaCuerda.net · Aviso Legal · Privacidad