Tablatura para Guitarra de Gustavo Cerati: Puente
Conexión · Inscripción
Letras y Acordes
Pantalla Completa
Imprimir
Versión Texto
Añadir Favorito
Otras Versiones

Mostrar Diagramas
Desfile Automático
Manipular Acordes
Formato del Texto


Gustavo Cerati
Puente(TAB)
calidad:
gcer0175
AUTOR: Cerati
ALBUM: desconocido
Enviado por Ariel
Original Mezclado Con El Tocado En Viña Del Mar 2007 para que
suene mejor, Segun Pienso Yo, que es una de las transcripciones
mas completas lean y fijense
Gracias facu por tu oido jaja
Espero les guste
Saludos

Transporte 3
Intro(x4):
        D          D           D
-------------------------------------------
--------3----------3-----------3-----------
-----2-----2----------2------------2-------
---0----------0----------0------------0----
-------------------------------------------
-------------------------------------------
                Am7                           C9
-------------------------------------------------------------
-----------------3----------------------------3--------------
-------------0-------0---------------------0-----0-----------
--------2-------------------------------2----------2---------
----0--------------------0-2-3-------------------------------
-------------------------------------------------------------

D            D2  Am7      C          D
Hoy te busqué en la rima que duerme
    D2        Am7        C
con todas las palabras.
D        D2   Am7       C            D
Si algo callé es porque entendí todo
D2    Am7           C
menos la distancia.
Em     C    Bm     Bb
Desordené átomos tuyos
    A        D
par hacerte aparecer
 G      D/F   Em      A
(un día más ,un día más...)
D         D2  Am7         C      D
Arriba el sol abajo el reflejo
D2      Am7      C
de cómo estalla mi alma
D        D2   Am7       C         D
Ya estás aquí y el paso que dimos
D2       Am7      C
es causa y es efecto
Em        C    Bm           Bm/Ab
Cruza el amor yo cruzaré los dedos
  D    G  Em  G  D   G Em G
Y gracias por venir
D    G  Em  G   E  E7
gracias por venir

[A Bm G D(riff)]

D(Riff)
3----3---3--2---0--------0
3----3---3--3-----3------2
0----0-------------------2
0------------------------2
2------------------------0
3-------------------------

A  Bm     G    D(riff)
Adorable puente
A     Bm        G        D(riff)
se ha creado entre los dos.

(Esta parte háganla como punteo y los acordes
háganlo rasgueando y va a sonar parecido.)

Am7 C X2

-0p2-0p2-4-2-0----0----0-----0-
-------------------------------
-------------------------------
-------------------------------
----------------3--3-2---2-3--3
-------------------------------

-0p2-0p2-4-2-0--2
-----------------
-----------------
-----------------
-----------------
-----------------

Em       C
Cruza el amor
Bm       Bm/Ab
yo cruzaré los dedos
D   G   Em  G
gracias por venir
D G Em G

D   G   Em  G
gracias por venir
D G Em G

[D G Em G D G Em]
[G D G Em G E E7]X3

A  Bm     G(Riff)
Adorable puente
(Riff)
3----2-----2-----------------------0--
--3--3------3-------------------3-----
-----2--------------0---------0-------
-----0-----------------0h2------------
-----------------3--------------------
--------------------------------------
A     Bm        G        D(riff)
se ha creado entre los dos.
G        D/F
Cruza el amor
Em           A        G       D/F  Em  A
cruza el amor por el puente
G      D/F   Em       A           G        D/F  Em  A   G9
Usa el amor, usa el amor como un puente.

Outro (x1)
D D2 D (Dejar Sonar)

--------------------------------------------------
Acordes
D2     C9      Am7      Bb      D/F     Bm/Ab
0       0       3       1       0       X
3       2       1       3       3       3
2       0       2       3       2       4
0       2       2       3       0       4
0       3       0       1       0       X
0       0       0       X       2       4
Este fichero es trabajo propio de su transcriptor y representa su interpretación personal de la canción. El material contenido en esta página es
para exclusivo uso privado, por lo que se prohibe su reproducción o retransmisión, así como su uso para fines comerciales.

© LaCuerda.net · Aviso Legal · Privacidad