Letra y Acordes de Gustavo Cerati: Lago en el cielo
Conexión · Inscripción
Letras y Acordes
Pantalla Completa
Imprimir
Versión Texto
Añadir Favorito
Otras Versiones

Mostrar Diagramas
Desfile Automático
Manipular Acordes
Formato del Texto


Gustavo Cerati
Lago en el cielo
calidad:
gcer0552
AUTOR: Gustavo Cerati
ALBUM: Ahi Vamos (2006)
Enviado por Yvancho, basado en Jeremías
INTRO

      Am             G            D

e ----------------|------------|------------------------|
B ----------------|------------|------------------------|
G ----10----10----|----8---8---|---7---7-------7---7----|
D ----------------|------------|------------------------|
A -10----10----10-|-9---9----9-|-7---7---7---7---7---7--|
E ----------------|------------|------------------------| (2 Veces)

e ----------------|------------|-----------------------|
B ----------------|------------|-----------------------|
G ----10----10----|----8---8---|---7---7---------7-----|
D ----------------|------------|-----------------7-----|
A -10----10----10-|-9---9----9-|-7---7---7---7---7-----|
E ----------------|------------|-----------------------|
                                                 ^
                                      aqui hacen un slide down

Cmaj7 - D --- x4 Veces

Cmaj7              D   Cmaj7
Un lago en el cielo
                D   Cmaj
quiero ser suave
                D   Cmaj7
para evitar tu dureza

D   Cmaj7             D   Cmaj7
        apago tu fuego
               D   Cmaj7
enciende mi agua
                     D    Cmaj7   D
puede que no haya certezas

Coro:
-----
Bm        C       D
  Vamos despacio
            Bm
para encontrarnos
Am              C          D
  el tiempo es arena en mis manos
Em             Am
  sé  por tus marcas
D            Bm
  cuanto has amado
Am            C           D
  más de lo que prometiste


Verso 2:
--------
Cmaj7         D
Hoy te apuré
(estaba tan sensible)
son espejismos que aumentan la sed
si adelanté no me hagas caso
a veces no puedo con la soledad

Coro:
-----
Bm        C       D
  Vamos despacio
            Bm
para encontrarnos
Am              C          D
  el tiempo es arena en mis manos
Em             Am
  sé  por tus marcas
D            Bm
  cuanto has dejado
Am            C              D
  para olvidar lo que hiciste

    Am           C            D
sentir algo que nunca sentiste

------------
Intro x 3
------------


F            C          G
  Sos el paisaje más soñado
       F             C           G
y sacudiste las más sólidas tristezas
         F          C                 G
y respondiste cada vez que te he llamado


Coro:
-----
Bm        C       D
  Vamos despacio
            Bm
para encontrarnos
Am              C          D
  el tiempo es arena en mis manos
Em               Am
  un lago en el cielo
D            Bm
 Oh! es mi regalo
Am            C           D
  para olvidar lo que hiciste

    Am             C            D
 sentir algo que nunca sentiste
           Am
hacerte sentir
          C           D
algo que nunca sentiste

Am C Bm Am - Am C Em - Em (Em varias vcs)

C G D

C G D
DuDuDu du du du du du du du
----------------------------------------------------------

Saludos a todos los Soderos y Ceratianos que andan por ahi,
Gracias Maestro Gus por enseñarnos tanto, eres grande muy grande!
Este fichero es trabajo propio de su transcriptor y representa su interpretación personal de la canción. El material contenido en esta página es
para exclusivo uso privado, por lo que se prohibe su reproducción o retransmisión, así como su uso para fines comerciales.
© LaCuerda.net · Aviso Legal · Privacidad