Letra y Acordes de Gustavo Cerati: Bajan
Conexión · Inscripción
Letras y Acordes
Pantalla Completa
Imprimir
Versión Texto
Añadir Favorito
Otras Versiones

Mostrar Diagramas
Desfile Automático
Manipular Acordes
Formato del Texto


Gustavo Cerati
Bajan
calidad:
gcer0083
AUTOR: Luis Alberto Spinetta
ALBUM: desconocido
Enviado por j.Marcelo.Z
Intro:

E-----0----------0---------I
B--------0----2------------I
G-----------0 -------------I
D--2-----------------------I (MI x4)
A--2-----------------------I
E--0----------------0--^3--I

           TENGO TIEMPO PARA SABER

       SI LO QUE SUENO CONCLUYE EN ALGO.

       NO TE APURES  YA MAS LOCO

       PORQUE ES ENTONCES  CUANDO LAS HORAS

      -------------CORO-----------------

        BAJAN  EL DIA

        ES VIDRIO SIN SOL

        BAJAN LA NOCHE

        TE OCULTA LA VOZ

        Y ADEMAS

        VOS QUERES SOL

        DESPACIO  TAMBIEN

        PODES HALLAR LA LUNA.

        -------------------------------

        VIEJO ROBLE DEL CAMINO

        TUS HOJAS SIEMPRE SE AGITAN ALGO

        NENA NENA QUE BIEN TE VES

        CUANTO EN TUS OJOS
        NO IMPORTA SI LAS HORAS


    -------------CORO---------------

ACORDES:

E---0----2------4------5---------2----3----4----------4-----0
B---0----2------5------4---------4----5----5----------4-----0
G---1----2------6------5---------4----5----5----------4-----6
D---2----4------6------4---------4----5----6----------6-----7
A---2----4------4------6---------2----3----4----------6-----7
E---0----2------x------x---------x----x----X----------4-----5
Este fichero es trabajo propio de su transcriptor y representa su interpretación personal de la canción. El material contenido en esta página es
para exclusivo uso privado, por lo que se prohibe su reproducción o retransmisión, así como su uso para fines comerciales.

© LaCuerda.net · Aviso Legal · Privacidad