Tablatura para Bajo de Gustavo Cerati: Adios
Conexión · Inscripción
Letras y Acordes
Pantalla Completa
Imprimir
Versión Texto
Añadir Favorito
Otras Versiones

Mostrar Diagramas
Desfile Automático
Formato del Texto


Gustavo Cerati
Adios(BAJ)
calidad:
gcer0505
AUTOR: Gustavo Cerati
ALBUM: Ahi Vamos (2006)
Enviado por roger
Una de las mejores canciones de Cerati dedicada
a los cuates del 3 "c" de la prepa 103 en este fin de curso


intro, versos y solo

Riff:
G|-------------------------------------|
D|-------------------------------------|
A|-----------------5-5-----------------|
E|--2--0--0--5--5------3333---5-3-30---|

G|-------------------------------------|
D|-------------------------------------|
A|----------5-5------------------------|
E|-0---5--5-----3333---5-3-30----------|


 "pones canciones..." y "quedabas esperando..."
G|----------------------------------|
D|----------------------------------|
A|-----------------------555555-----|
E|--777777--555555--333333----------|

G|-------------------------------------|
D|-------------------------------------|
A|-------------------------------------|aqui vuelve a
E|--555555--777777--33333333333---3--0-| comenzar el verso

"separarse de la especie..."
Riff:
G|-------------------------------------|
D|-------------------------------------|
A|-------------------------------------|
E|--777777--222222--555555---000000----|

G|-------------------------------------|
D|-------------------------------------|
A|----------555555---------------------|
E|--333333----------555555555555-------|


"no es soberbia... " segunda vez, hasta "es crecer"



G|---------------------------------------|
D|---------------------------------------|
A|---------------------------------------|
E|--3/10--5/12--3/15--3333333--silencio--|

final


G|------------------------------------------|
D|------------------------------------------|   solo una vez
A|----------5-5-----------------------------|
E|-0---5--5-----3333---5-3-333333---5--3----|

esto hasta el final el cual termina en  G

G|-------------------------------------|
D|-------------------------------------|
A|-------------------------------------|
E|--333333--5--333333--5---3333---5----|
Este fichero es trabajo propio de su transcriptor y representa su interpretación personal de la canción. El material contenido en esta página es
para exclusivo uso privado, por lo que se prohibe su reproducción o retransmisión, así como su uso para fines comerciales.
© LaCuerda.net · Aviso Legal · Privacidad