Tablatura para Guitarra de Gustavo Cerati: Adios
Conexión · Inscripción
Letras y Acordes
Pantalla Completa
Imprimir
Versión Texto
Añadir Favorito
Otras Versiones

Mostrar Diagramas
Desfile Automático
Manipular Acordes
Formato del Texto


Gustavo Cerati
Adios(TAB)
calidad:
gcer0502
AUTOR: Gustavo Cerati
ALBUM: Ahi Vamos (2006)
Enviado por Rodrigo, basado en SoNoMaN
Subí este tema por que vi uno en la pagina que le falta el solo y ademas
lo resumí un poco... saludos espero les guste...

Gustavo Cerati - Adiós

Riff 1:

eI----------0---------2-3-2-----------------I
BI------------2-0-----------3---------------I
GI--------0-------2--------------4-6/4--4~--I
DI------2-----------0------------5-7/5--5~--I
AI-------------------------------5-7/5--5~--I
EI--2-0-----------------------3--3-5/3--3~--I

Intro: [Riff 1] x2

Em       A        D           G   A  G
   Suspiraban lo mismo los dos
Em            A             D         G   A  G
   y hoy son parte de una lluvia lejos
Em           A         D             G   A  G
   no te confundas no sirve el rencor
Em         A          D           G   A  G
   son espasmos después del adiós

Bm           F#m            G                 D Dsus D
   Ponés canciones tristes para sentirte mejor
A               Bm
  tu esencia es más visible,
     G
Del mismo dolor
    Gm
vendrá un nuevo amanecer.

[Riff 1] x1

Em             A        D       G   A  G
   Tal vez colmaban la necesidad
Em             A         D           G   A  G
   pero hay vacíos que no pueden llenar
Em         A         D        G   A  G
   no conocían  la profundidad
Em               A    D          G   A  G
   hasta que un día no dio para más

Bm           F#m      G                 D  Dsus D
   Quedabas esperando ecos que no volverán
A              Bm
  flotando entre rechazos
     G
del mismo dolor
    Gm
vendrá un nuevo amanecer.

[Riff 1] acompañando al solo.

Solo:

---------------------------------------------------------
----------------------------------------------10---------
------7-9h11----------------9h11-9p7---7-9h11----9p7-----
--7-9--------7-9---9/11-9------------9---------------9---
---------------------------------------------------------
---------------------------------------------------------

--7-------------------------------------------------10-----
----10-9-----------------------------10/12-10----12----12--
---------9-7-9-9h11------------9--------------11-----------
--------------------7/9---9/11---9-------------------------
-----------------------------------------------------------
-----------------------------------------------------------

--14p12-----------------------------------------------
--------15-14-15-14-12-10-10/12-----------------------
------------------------------------------------------
----------------------------------9/11-9---9-11-12----
------------------------------------------------------
------------------------------------------------------

Bm           F#m
   Separarse de la especie
G             D
por algo superior
G          D         A  Asus A Asus
  no es soberbia es amor
G          D          A Asus E Esus E
  no es soberbia es amor
G          Gm
  Poder decir adiós

es crecer

[Riff 1] x2

G A G A G A G A G A G A G A G A G A (G) como final
Este fichero es trabajo propio de su transcriptor y representa su interpretación personal de la canción. El material contenido en esta página es
para exclusivo uso privado, por lo que se prohibe su reproducción o retransmisión, así como su uso para fines comerciales.

© LaCuerda.net · Aviso Legal · Privacidad