Tablatura para Guitarra de Gustavo Cerati: A Merced
Conexión · Inscripción
Letras y Acordes
Pantalla Completa
Imprimir
Versión Texto
Añadir Favorito
Otras Versiones

Mostrar Diagramas
Desfile Automático
Manipular Acordes
Formato del Texto


Gustavo Cerati
A Merced(TAB)
calidad:
gcer0013
AUTOR: Gustavo Cerati
ALBUM: desconocido
Enviado por H
ACORDES UTILIZADOS:

A        : 542255
A7no5    : 545225
A96no3   : 522252
A97no3   : 522253
A97no5   : 525225
Bm       : 224432
C#m      : 446654
D        : 554232
D6       : 524432
D7no5    : 254532
E7       : x22434
E7sus4   : x22435
E97no3   : x22432
Eadd9    : 422452
Esus2no3 : 222452
F#       : 244322
G7       : 353433
G7*      : 353463
G7no5    : x25463
Gmaj7    : x55432



NOTACIONES:

/  : slide ascendente
  : slide descendente
b  : estirar (o dejar de estirar) ó bend up/down
h  : ligado ascendente ó hammer-on
p  : ligado desdencente ó pull-off



ACLARACIÓN: Usar transporte (o capo) en el 2do. traste.



     D               Gmaj7    D           Gmaj7
e|---2---2--2--2--2--2--2--2--2--2--2--2--2--2--2----|
B|---3---3--3--3--3--3--3--3--3--3--3--3--3--3--3----|
G|---2---2--2--2--2--4--4--4--2--2--2--2--4--4--4----|
D|---4---4--2/-4--2--5--5--5--4--2/-4--2--5--5--5----|
A|---5---5--5--5--5--5--5--2--5--5--5--5--5--2--5----|
E|---5---5--5--5--5-----------5--5--5--5-------------|



     D               Gmaj7    D           Gmaj7
e|---2---2--2--2--2--2--2--2--2--2--2--2--2--2--2----|
B|---3---3--3--3--3--3--3--3--3--3--3--3--3--3--3----|
G|---2---2--2--2--2--4--4--4--2--2--2--2--4--4--4----|
D|---4---4--2/-4--2--5--5--5--4--2/-4--2--5--5--5----|
A|---5---5--5--5--5--5--5--2--5--5--5--5--5--2--2----|
E|---5---5--5--5--5-----------5--5--5--5--------5----|



     D               Gmaj7    D           Gmaj7
e|---2---2--2--2--2--2--2--2--2--2--2--2--2--2--2----|
B|---3---3--3--3--3--3--3--3--3--3--3--3--3--3--3----|
G|---2---2--2--2--2--4--4--4--2--2--2--2--4--4--4----|
D|---4---4--2/-4--2--5--5--5--4--2/-4--2--5--5--5----|
A|---5---5--5--5--5--5--5--2--5--5--5--5--5--2--5----|
E|---5---5--5--5--5-----------5--5--5--5-------------|
     Hey hey hey     a  merced


         D                  Gmaj7
e|-------2------2--2--2--2--2--2---|
B|-------3------3--3--3--3--3--3---|
G|-------2------2--2--2--2--4--4---|
D|-------4------4--2/-4--2--5--5---|
A|-------5------5--5--5--5--5--5---|
E|-------5------5--5--5--5---------|
     mi amor es real


        Bm       D6  Eadd9  Esus2no3  A    A7no5  A97no5
e|------2--------2---2------2---------5----5------5-----|
B|------3--------3---5------5---------5----2------2-----|
G|------4--------4---4------4---------2----2------2-----|
D|------4--------4---2------2---------2----5------5-----|
A|------2--------2---2------2---------4----4------2-----|
E|------2--------5---4------2---------5----5------5-----|
     me vuelvo a quedar a   mer-------ced


     D               Gmaj7    D           Gmaj7
e|---2---2--2--2--2--2--2--2--2--2--2--2--2--2--2----|
B|---3---3--3--3--3--3--3--3--3--3--3--3--3--3--3----|
G|---2---2--2--2--2--4--4--4--2--2--2--2--4--4--4----|
D|---4---4--2/-4--2--5--5--5--4--2/-4--2--5--5--5----|
A|---5---5--5--5--5--5--5--2--5--5--5--5--5--2--5----|
E|---5---5--5--5--5-----------5--5--5--5-------------|
     Hey hey hey     a  merced


         D                 Gmaj7
e|------2------2--2--2--2--2--2---|
B|------3------3--3--3--3--3--3---|
G|------2------2--2--2--2--4--4---|
D|------4------4--2/-4--2--5--5---|
A|------5------5--5--5--5--5--5---|
E|------5------5--5--5--5---------|
     historias de sal


        Bm        D6  Eadd9  Esus2no3  A    A97no3  A96no3
e|------2---------2---2------2---------5----3-------2------|
B|------3---------3---5------5---------5----5-------5------|
G|------4---------4---4------4---------2----2-------2------|
D|------4---------4---2------2---------2----2-------2------|
A|------2---------2---2------2---------4----2-------2------|
E|------2---------5---4------2---------5----5-------5------|
     me vuelven a de--jar a  mer-------ced


     D7no5            G7no5   D7no5     G7no5
e|---2----------------3-------2---------3------|
B|---3----------------6-------3---------6------|
G|---5----------------4-------5---------4------|
D|---4----------------5-------4---------5------|
A|---5----------------2-------5---------2------|
E|---2------------------------2----------------|
       tomar una dosis        y  levitar


     D7no5          G7no5     D7no5     G7no5
e|---2--------------3----------2---------3------|
B|---3--------------6----------3---------6------|
G|---5--------------4----------5---------4------|
D|---4--------------5----------4---------5------|
A|---5--------------2----------5---------2------|
E|---2-------------------------2----------------|
    atado a tu belleza inconcieente


         E7              E7sus4     E97no3 E7
e|-------4---------------5----------2-------4---|
B|-------3---------------3----------3-------3---|
G|-------4---------------4----------4-------4---|
D|-------2---------------2----------2-------2---|
A|-------2---------------2----------2-------2---|
E|----------------------------------------------|
     que mece mi espíritu y cuelgaaaaaaaaaaaa...


     D               Gmaj7    D           Gmaj7
e|---2---2--2--2--2--2--2--2--2--2--2--2--2--2--2----|
B|---3---3--3--3--3--3--3--3--3--3--3--3--3--3--3----|
G|---2---2--2--2--2--4--4--4--2--2--2--2--4--4--4----|
D|---4---4--2/-4--2--5--5--5--4--2/-4--2--5--5--5----|
A|---5---5--5--5--5--5--5--2--5--5--5--5--5--2--5----|
E|---5---5--5--5--5-----------5--5--5--5-------------|
     Hey hey hey     a  merced


       D                  Gmaj7
e|-----2-----2--2--2--2--2--2---|
B|-----3-----3--3--3--3--3--3---|
G|-----2-----2--2--2--2--4--4---|
D|-----4-----4--2/-4--2--5--5---|
A|-----5-----5--5--5--5--5--5---|
E|-----5-----5--5--5--5---------|
  te escucho soñar


        Bm       D6  Eadd9     D
e|------2--------2---2---------2-----|
B|------3--------3---5---------3-----|
G|------4--------4---4---------2-----|
D|------4--------4---2---------4-----|
A|------2--------2---2---------5-----|
E|------2--------5---4---------5-----|
     me vuelvo a quedar a merced



BASE DEL SOLO:   D  Gmaj7  D  Gmaj7


SOLO:

e|------9-----9-----12~-12-12/14----14-----12---------10------|
B|--10~--10~---10~--------------12----1210--10-108----87~--|
G|------------------------------------------------------------|
D|------------------------------------------------------------|
A|------------------------------------------------------------|
E|------------------------------------------------------------|


e|---------------10-12/14p12-16b17b1612--12---------------|
B|-----7-8--10/12-----------------------12--109~-10-12~---|
G|--7h9----------------------------------------------------|
D|---------------------------------------------------------|
A|---------------------------------------------------------|
E|---------------------------------------------------------|
                 (acá empieza a cantar lo que le sigue al solo)


e|----12--12-16-12--17-17b19b17-16p12-14-15-----15---------------|
B|--12--12--------12-----------------------18b20--18b20b186/8~--|
G|---------------------------------------------------------------|
D|---------------------------------------------------------------|
A|---------------------------------------------------------------|
E|---------------------------------------------------------------|


        E7                 E7sus4
e|------4------------------5-------|
B|------3------------------3-------|
G|------4------------------4-------|
D|------2------------------2-------|
A|------2------------------2-------|
E|---------------------------------|
    así quiero que te despiertes


               G7   G7*
e|-------------3----3--------------------------------|
B|-------------3----6--------------------------------|
G|-------------4----4--------------------------------|
D|-------------3----3--------------------------------|
A|-------------5----5--------------------------------|
E|-------------3----3--------------------------------|
    y es porque      podrías sonreir de verme flotar



     D           Gmaj7    D    Gmaj7
e|---2-----------2--------2----2----|
B|---3-----------3--------3----3----|
G|---2-----------4--------2----4----|
D|---4-----------5--------4----5----|
A|---5-----------5--------5----5----|
E|---5--------------------5---------|
     Hey hey hey a merced


        D          Gmaj7  D               Gmaj7
e|------2----------2------2---------------2----------|
B|------3----------3------3---------------3----------|
G|------2----------4------2---------------4----------|
D|------4----------5------4---------------5----------|
A|------5----------5------5---------------5----------|
E|------5-----------------5--------------------------|
    mi amor es real    me vuelvo a quedar a merced...


     D           Gmaj7    D    Gmaj7
e|---2-----------2--------2----2----|
B|---3-----------3--------3----3----|
G|---2-----------4--------2----4----|
D|---4-----------5--------4----5----|
A|---5-----------5--------5----5----|
E|---5--------------------5---------|
     Hey hey hey a merced


        D          Gmaj7  D               Gmaj7
e|------2----------2------2---------------2----------|
B|------3----------3------3---------------3----------|
G|------2----------4------2---------------4----------|
D|------4----------5------4---------------5----------|
A|------5----------5------5---------------5----------|
E|------5-----------------5--------------------------|
    mi amor es real    me vuelvo a quedar a merced...


     D           Gmaj7    D    Gmaj7
e|---2-----------2--------2----2----|
B|---3-----------3--------3----3----|
G|---2-----------4--------2----4----|
D|---4-----------5--------4----5----|
A|---5-----------5--------5----5----|
E|---5--------------------5---------|
     Hey hey hey a merced


       C#m        F#    Bm       D6   Eadd9
e|-----4-----------2----2--------2----2----------------|
B|-----5-----------2----3--------3----5----------------|
G|-----6-----------3----4--------4----4----------------|
D|-----6-----------4----4--------4----2----------------|
A|-----4-----------4----2--------2----2----------------|
E|-----4-----------2----2--------5----4----------------|
   mi amor es real   me vuelvo a quedaaaaaaar...
   (repite sin voz)


SOLO (ahora sin transporte y con delay):


e|--2p0----------2p0----5-------2p0----------7~-------12~-|
B|-----3--------3---3-3--------3---3----------------------|
G|------2----2-------2------2-------2--2-2/7~--7-7/13~----|
D|--------------------------------------------------------|
A|--------------------------------------------------------|
E|--------------------------------------------------------|


e|------10--10--8---7---5----5------7---|
B|--------------------------------------|
G|--9/11--11-9--7-5-----5--5-5/7-----|
D|--------------------------------------|
A|--------------------------------------|
E|--------------------------------------|


e|------------------------------------------------------------12---|
B|--13-13-13-13-13-13-13-13-12------------------------------12-----|
G|----------------------------12-12--11/12-11-------------13-------|
D|-------------------------------------------12---12-12-14---------|
A|-----------------------------------------------------------------|
E|-----------------------------------------------------------------|


e|--14---------------------------------------------------------------|
B|----15-------------------------------------------------------------|
G|------14-12-11--12-14--------------------------------------14------|
D|---------------------12-12-10-9/10-9---------------12-14/16--12~---|
A|------------------------------------12--------12/14----------------|
E|--------------------------------------10----10---------------------|


e|--------------14-------12-------------|
B|------------15--15---12--12-----------|
G|----------16---------------13---------|
D|--12-12/16-------------------14-12----|
A|--------------------------------------|
E|--------------------------------------|


e|----7--5-5--2/----5/----7--|
B|-----------------------------|
G|--7--5----2---2/5---5/7----|
D|-----------------------------|
A|-----------------------------|
E|-----------------------------|


e|----------------------------------------------------------|
B|--13b15-b15b13--------------------------------------------|
G|--------------14-12--10-12-12b14b12p10-------13-----13----|
D|--------------------------------------12-------14-12--12--|
A|----------------------------------------12/14-------------|
E|----------------------------------------------------------|


e|--------------------------------------17----17----17----17--|
B|----------------------------------------17----17----17------|
G|--14---14---14---14---14---14---14--------14----14----14----|
D|----14---14---14---14---14---14---14------------------------|
A|------------------------------------------------------------|
E|------------------------------------------------------------|


e|----9-12-12-12-12-9---------------10----12----14--|
B|-------------------10-----------------------------|
G|--11-----------------11--9h11---11----12----14----|
D|--------------------------------------------------|
A|--------------------------------------------------|
E|--------------------------------------------------|


e|----15---14---12---108---7--5--5-------------|
B|----------------------------------------------|
G|--16---14---12---11--9--7--5--5--5b7b5b7b5---|
D|----------------------------------------------|
A|----------------------------------------------|
E|----------------------------------------------|


e|-----------------------------5-5-5-5-5-5-5------5-5-5--------|
B|-----------------------7-----6~6~6~6~6~6b7------6-6-6---6----|
G|--7-7-7-6-7-6------6-7---7----------------7-7~--------7---7--|
D|--------------9--9-------------------------------------------|
A|-------------------------------------------------------------|
E|-------------------------------------------------------------|


e|------------------------------7------------4-5-7--|
B|-------3-5b7b5p3--5b7b5p3--5b7-b7b5p3-5p3-5-5-----|
G|--7-5---------------------------------------------|
D|--------------------------------------------------|
A|--------------------------------------------------|
E|--------------------------------------------------|


e|--17-17-17-----17-17---|
B|----------15-15---------|
G|------------------------|
D|------------------------|
A|------------------------|
E|------------------------|


e|----2p0---0-2--3--2--0-2-3p2-3-5-5-5-5-5--3-2-0--|
B|-------3------3--3--3-----------3-3-3-3----3-0---|
G|--2-----2----------------------------------------|
D|-------------------------------------------------|
A|-------------------------------------------------|
E|-------------------------------------------------|


e|--------------------------------------------------------|
B|--------------------------------------------------------|
G|----------------------------------------------0-2-2/4---|
D|--2-2-2-2-2-2-2-0-0-0-2-2-0-0-------------0-2-----------|
A|------------------------------2-0--0-0-0h2--------------|
E|--------------------------------------------------------|


e|--------------2-3-5-5--10p7---------------------------|
B|------3-3-3-3------3--7----10-7-----------------------|
G|--4-4--------------------------9-7--------------------|
D|----------------------------------9-7-9-7-------------|
A|------------------------------------------10-9-7--7---|
E|------------------------------------------------10----|


e|------------------------------|
B|--------9-9--9-9-9-9----------|
G|--9-9-7--------------7-7-7-7--|
D|------------------------------|
A|------------------------------|
E|------------------------------|


e|------9--------9--------9-------9-12-12/14-14--|
B|--7-10-10--7-10-10--7-10-10-7-10---------------|
G|-----------------------------------------------|
D|-----------------------------------------------|
A|-----------------------------------------------|
E|-----------------------------------------------|


e|--22-22-21-21---------22-22-21-21--------|
B|-------------22b24~-22------------22-19--|
G|-----------------------------------------|
D|-----------------------------------------|
A|-----------------------------------------|
E|-----------------------------------------|


e|------------------------------------------------------|
B|--17h19-17h19-19-19--19-17-17--14h15-14-12-14p12-----|
G|------------------------------------------------------|
D|------------------------------------------------------|
A|------------------------------------------------------|
E|------------------------------------------------------|


e|-------12--12------12--12-----10--8---7--5--3--2---|
B|--12h14--14---12h14--14----------------------------|
G|--------------------------10/11--9---7--5--4--2----|
D|---------------------------------------------------|
A|---------------------------------------------------|
E|---------------------------------------------------|


e|-----10--8--7--9----|
B|--------------------|
G|--/11--9--7-/9------|
D|--------------------|
A|--------------------|
E|--------------------| (Fade Out)
Este fichero es trabajo propio de su transcriptor y representa su interpretación personal de la canción. El material contenido en esta página es
para exclusivo uso privado, por lo que se prohibe su reproducción o retransmisión, así como su uso para fines comerciales.
© LaCuerda.net · Aviso Legal · Privacidad