Tablatura para Guitarra de Grupo Femenino Bolivia: Nostalgias
Conexión · Inscripción
Letras y Acordes
Pantalla Completa
Imprimir
Versión Texto
Añadir Favorito
Otras Versiones

Mostrar Diagramas
Desfile Automático
Manipular Acordes
Formato del Texto

Grupo Femenino Bolivia
Nostalgias(TAB)
calidad:
gfbo0022
AUTOR: Grupo Femenino Bolivia  corregir
ALBUM: desconocido (2003)
Enviado por Jorge
Cualquier corrección o sugerencia al correo
jsrmusica2003hotmail.com saludos.


       Como si el viento adivinara
e|-5-----------------|
B|-5-----------------|
G|-5-----------------|
D|-7-----------------|
A|-7-----------------|
E|-5-----------------|

                 de la nostalgia que me embarga
e|-7-8-7-5-4-5-------|
B|-------------------|
G|-7-9-7-5-4-5-------|
D|-------------------|
A|-------------------|
E|-------------------|

   REm            LAm    REm            LAm
e|-------------------|--------------------------|
B|-5h6---------------|-5-5h6--------------------|
G|-----7-7-7p5-------|-------7-7-7p5------------|
D|-------------7-5-7-|---------------7-5-7------|
A|-------------------|--------------------------|
E|-------------------|--------------------------|

     FA                   FA
e|--------------------|--------------------------|
B|--------------------|--------------------------|
G|-5-5h7--------------|-5-5h7--------------------|
D|------7-7-7p5---5-7-|-------7-7-7p5---5-7------|
A|--------------8-----|---------------8----------|
E|--------------------|--------------------------|




REm                   LAm
son tus recuerdos y están
REm                LAm
matándole a mi corazón
FA
la peor es que no puedo olvidar
FA
en la distancia te se esperar

REm                  LAm
vuelve mi llanto a caer
    REm               LAm
abrazando esta mi soledad
FA
mi vida no tiene razón
FA
sin ti yo no se a donde voy

  FA    SIb   DO    FA      REm           SOLm LAm          REm
e|-5-------6--3---3-6-5-3-5|---------5-3---3-----------3-1-0-1|
B|---3-5-6-----------------|-6-3-5-6-----6-----5-2-3.5--------|
G|--------------5----------|----------------------------------|
D|-------------------------|----------------------------------|
A|-------------------------|----------------------------------|
E|-------------------------|----------------------------------|

        LA7       REm
e|-1-0----------0---|
B|-----3-2--2-3---3-|
G|------------------|
D|------------------|
A|------------------|
E|------------------|

           LA7         REm
como si el viento adivinara
         LA7             REm
de la nostalgia que me embarga

FA              LA7   REm
sola frente a este mundo
FA               LA7       REm
sola y con todos tus recuerdos
FA
no me resigno a perder tu amor
FA             LA7       REm
es mas me niego a olvidarte
FA              LA7   REm
sabes no quiero perderte
FA              LA7  REm
te amo mil veces te amo
  REm   LA7             REm  x2
e|-5-5-3-----5-4-5-3-2-3-1-|
B|-------5-----------------|
G|---------2---------------|
D|-------------------------|
A|-------------------------|
E|-------------------------|
  REm  LA7              REm
e|----1-5-6-5-6-3-|----0-3-5-3-6-5-|
B|--3-------------|--2-------------|
G|-2--------------|-2--------------|
D|----------------|----------------|
A|----------------|----------------|
E|----------------|----------------|

  REm  LA7                         REm
e|----1-5-6-5-6-3-|-6-5-3-------------|
B|--3-------------|-------6-5-3-2-5-3-|
G|-2--------------|-------------------|
D|----------------|-------------------|
A|----------------|-------------------|
E|----------------|-------------------|

           LA7         REm
como si el viento adivinara
         LA7             REm
de la nostalgia que me embarga

FA              LA7   REm
sola frente a este mundo
FA               LA7       REm
sola y con todos tus recuerdos
FA
no me resigno a perder tu amor
FA             LA7       REm
es mas me niego a olvidarte
FA              LA7   REm
sabes no quiero perderte
FA              LA7  REm
te amo mil veces te amo

  FA         LA7     REm  x2
e|-5-3------------------|
B|-----5-6-3--2-3-5-2-3-|
G|----------------------|
D|----------------------|
A|----------------------|
E|----------------------|
Envía el tono de "Nostalgias" a tu celular/móvil
Este fichero es trabajo propio de su transcriptor y representa su interpretación personal de la canción. El material contenido en esta página es
para exclusivo uso privado, por lo que se prohibe su reproducción o retransmisión, así como su uso para fines comerciales.
© LaCuerda.net · Aviso Legal · Privacidad