Tablatura para Guitarra de Gondwana: Sentimiento original
Conexión · Inscripción
Letras y Acordes
Pantalla Completa
Imprimir
Versión Texto
Añadir Favorito
Otras Versiones

Mostrar Diagramas
Desfile Automático
Manipular Acordes
Formato del Texto

Gondwana
Sentimiento original(TAB)
calidad:
gond0105
AUTOR: Gondwana  corregir
ALBUM: desconocido
Enviado por Isef
Esta no es una Modificacion
Mas bien es una Tablatura mas completa que las demas
Solo corregi el intro y agregue trompetas

Intro...

          F#m             Bm
e|----------------------------------|
B|----------------------------------|
G|----------------------------------|
D|------0-2-4-----------------------|
A|-222---------2-4444--00--0-2-0----|
E|-------------------------------2--|

INICIO
Bm                   F#m
  tu sabes que es verdad,
                       Bm
tu sabes que el amor existe
                   F#m
tu sabes que es verdad,
                   Bm
el sentimiento original.

SE REPITEN LOS ACORDES
Tu sabes que es verdad, siiii
tu lo sabes bien,
Tu sabes que es verdad
tu lo sabes, lo sabes, lo sabes...

INTER
A                              Gmaj7
Quiero escapar contigo a algún lugar
me apesta esta ciudad
A                     Gmaj7           A Gmaj7
todo Babilonia es tan típico, exepto tú

Estas son las trompetas que van en esta parte
Tocalas con distorcion

1--9---10---10-12-14-9---10-----|
2-------------------------------|
3-------------------------------|
4-------------------------------|
5-------------------------------|
6-------------------------------|

A                           G
la vida me enseño a ser natural y con esto
        A                       G
ver el mundo desde un plano espiritual
  A                  G
ahora sólo busco un amor verdadero
       A                     G
mis errores ya los tuve que pagar

INICIO...

Estas son las trompetas que van en esta parte de la cancion
Metele distorcion

(Esto se toca 2 veces)
1--10-9-----10-9-----10-9-------10-10h9-----10-9-----10-9-------|
2-------10-------10-------12------------10-------10-------12----|
3---------------------------------------------------------------|
4---------------------------------------------------------------|
5---------------------------------------------------------------|
6---------------------------------------------------------------|

INTER
Escapo al río, ahí marihuana puedo fumar
si tú vienes conmigo yo resistiré,
a meditar sobre música y pensar en dios,
tu piel morena me da inspiración,
(AQUI PUEDES METER LAS TROMPETAS DEL INTER)
música reggae que puedes cantar
musica reggae que puedes bailar
musica reggae que te hace pensar

                  F#m
Tu sabes que es verdad
                      Bm
tu sabes que el amor existe...

Y asi sucesivamente

***********************************
Tablatura por Isef Gonzalez
Cualquier cosa
isef_hunter@hotmail.com
Envía el tono de "Sentimiento original" a tu celular/móvil
Este fichero es trabajo propio de su transcriptor y representa su interpretación personal de la canción. El material contenido en esta página es
para exclusivo uso privado, por lo que se prohibe su reproducción o retransmisión, así como su uso para fines comerciales.
© LaCuerda.net · Aviso Legal · Privacidad