Tablatura para Guitarra de Glup!: Grado 3
Conexión · Inscripción
Letras y Acordes
Pantalla Completa
Imprimir
Versión Texto
Añadir Favorito
Otras Versiones

Mostrar Diagramas
Desfile Automático
Manipular Acordes
Formato del Texto

Glup!
Grado 3(TAB)
calidad:
glup0031
AUTOR: Glup!  corregir
ALBUM: desconocido (2001)
Enviado por Diego
G                  Bm
Un corazón como el tuyo
C                             Bm
se merece mucho menos que un perro
C                          G
se merece patearlo en el suelo
    D
asi es....

e|-10-10/12-10--7-7/8-7--5-5/3-
b|-----------------------------
G|-----------------------------
D|-----------------------------
A|-----------------------------
E|-----------------------------


G                  Bm
Un corazón como el tuyo
C                   Bm
me dejo asi como me vez
C                       G
con el alma partida en tres (en esta parte acelera)
D
ma matooooo

INTERLUDIO

e|---------7-10-10-7-10--12-10-7-8-10-12-10--7-7-5-7-8-5--7-7-5-7-8-7-5-
b|-8-8-5-8--------------------------------------------------------------
G|----------------------------------------------------------------------
D|----------------------------------------------------------------------
A|----------------------------------------------------------------------
E|----------------------------------------------------------------------

G/D/C/D/G/D/G/D (esto hace la guitarra)

Estrofa:
G                  Bm
Un corazon como el tuyo
C                   Bm
no merece volver a querer
C                             G
ojala que alguien te haga lo mismo
            D
que tu me hiciste a mi


G                  Bm
Un corazon como el tuyo
C                      Bm
fue del mismo que me enamore
C                     G
Maldita mi suerte contigo
           D
maldito corazooon

Em                          Bm
Si no fuera por que aun te quiero
C                    Bm
si no fuera por que ayer
C              D                Em
todavia yo dormia  entre tu pies
C                     G
si no fuera por todo esto

CORO

G  (1 vez)
Eschuchame Bien
Bm (1 vez)
es mi corazón
C (2 veces)
el que esta roto
D (2 veces)
por tu traicion

G               Bm
mentira tu vida es una mentira
C                     D
mentira tus besos mentira tu amor

G               Bm
escuchame bien, es mi corazón
C                D
el que esta roto por tu traición
G               Bm
mentira tu vida es una mentira
C                     D
mentira tus besos mentira tu amor

G                 Bm
mentira tu vida es una mentira
C                 Bm
una cosa es traicionar
C                  D                Em
y otra cosa muy distinta es grado tres
G                    D
si no fuera por todo esto

INTERLUDIO

e|---------7-10-10-7-10--12-10-7-8-10-12-10--7-7-5-7-8-5--7-7-5-7-8-7-5-
b|-8-8-5-8--------------------------------------------------------------
G|----------------------------------------------------------------------
D|----------------------------------------------------------------------  X2
A|----------------------------------------------------------------------
E|----------------------------------------------------------------------


G/Bm/C/Bm/C/G/D
G/Bm/C/Bm/C/G/D




Em                          Bm
Si no fuera por que aun te quiero
C                    Bm
si no fuera por que ayer
C              D                Em
todavia yo dormia  en tres tu pies
C                     D
si no fuera por todo esto

CORO

G  (1 vez)
Eschuchame Bien
Bm (1 vez)
es mi corazón
C (2 veces)
el que esta roto
D (2 veces)
por tu traicion

G               Bm
mentira tu vida es una mentira
C                     D
mentira tus besos mentira tu amor

G               Bm
escuchame bien, es mi corazón
C                D
el que esta roto por tu traición
G               Bm
mentira tu vida es una mentira
C                     D
mentira tus besos mentira tu amor

G               Bm
escuchame bien, es mi corazón
C                D
el que esta roto por tu traición
G               Bm
mentira tu vida es una mentira
C                     D
mentira tus besos mentira tu amor

G                 B 
mentira tu vida es una mentira
C                 Bm
una cosa es traicionar
C                  D                Em
y otra cosa muy distinta es grado tres
C                  D                Em
y otra cosa muy distinta es grado trees
C                     D
si no fuera por todo estoo..


wena cabros, intente sacar la parte de las trompetas en guitarra
y por lo menos yo estoy conforme con el resultado,
 ojala les guste :)
Este fichero es trabajo propio de su transcriptor y representa su interpretación personal de la canción. El material contenido en esta página es
para exclusivo uso privado, por lo que se prohibe su reproducción o retransmisión, así como su uso para fines comerciales.
© LaCuerda.net · Aviso Legal · Privacidad