Tablatura para Guitarra de Gloria Stefan: Más Allá
Conexión · Inscripción
Letras y Acordes
Pantalla Completa
Imprimir
Versión Texto
Añadir Favorito
Otras Versiones

Mostrar Diagramas
Desfile Automático
Manipular Acordes
Formato del Texto

Gloria Stefan
Más Allá(TAB)
calidad:
gste0052
AUTOR: Gloria Stefan  corregir
ALBUM: desconocido
Enviado por Luis
Una buena canción! Que SIEMPRE tengan una Feliz Navidad, en compañía de
sus seres queridos. ;)

Con Capo en el 1er. Traste

Intro: DO LAm REm SIb FA SOL

e|-------3------------3-----------------------------4/5-3---4..--|
B|---4/5---5..--4/5-3---3..--3-5-5/6-5-3---3--------------6------|
G|---------------------------------------5---4/5..---------------|
D|-5-------------------------------------------------------------|
A|---------------------------------------------------------------|
E|---------------------------------------------------------------|

(1)
           DO
Cuando das sin esperar
           LAm
Cuando quieres de verdad                          
           REm                 SIb
Cuando brindas perdón, en lugar de rencor 
  FA              SOL
Hay paz en tu corazón. (Riff1)
     
(1)
Cuando sientes compasión,
del amigo y su dolor,
cuando miras la estrella, que oculta la niebla
hay paz en tu corazón. (Riff 2)
 
Riff 1
e|---------3-5-3.--|
B|-------3---------|
G|-0-2-4-----------|
D|-----------------|
A|-----------------|
E|-----------------|

Riff 2
e|-10/12-10----------------|
B|----------8/10-8---------|
G|-----------------9-7-----|
D|---------------------10--|
A|-------------------------|
E|-------------------------|
 
Coro
        DO            LAm
Más allá, del rencor                       
   FA                  DO
de las lágrimas y el dolor       
            SOL     LAm
brilla la luz, del amor  
    FA             SOL
dentro de cada corazón. (Riff 3)

Riff 3
e|-10-8---------------|
B|------12-8----------|
G|--------------------|
D|-----------12-10-9--|
A|--------------------|
E|--------------------|
        DO            LAm
Ilusión, Navidad
   FA                  DO
pon tus sueños a volar,
            SOL     LAm
siembra paz brinda amor
    FA             SOL
que el mundo entero pide más.

e|--------------3-----------3-------------------------9/10-8--|
B|---------3-5.---5.--4/5-3---3.--3-5-5/6-5-3---3-------------|
G|---2-4-5------------------------------------5---5.----------|
D|-5----------------------------------------------------------|
A|------------------------------------------------------------|
E|------------------------------------------------------------|

      DO
Cuando brota una oración
      LAm
cuando aceptas el error
      REm            SIb
cuando encuentras lugar, para la libertad
      FA      SOL
hay una sonrisa más. (Riff 1)
      DO
Cuando llega la razón
      LAm
y se va la incomprensión
      REm            SIb
cuando quieres luchar, por un ideal
      FA      SOL
hay una sonrisa más. (Riff 4)

Riff 4
e|---------|
B|------6--|
G|-7-9--7--|
D|-9-10----|
A|---------|
E|---------|

               FA
Hay un rayo de sol
                DO
a través del cristal
              FA
hay un mundo mejor
                  SOL
cuando aprendes a amar

Coro

      RE
Cuando alejas el temor,
      SIm
y prodigas tu amistad
      Em            SOL
cuando a un mismo cantar, has unido tu voz
      DO      LA
hay paz en tu corazón.

      RE
Cuando buscas con ardor
      SIm
y descubres tu verdad
      Em            SOL
cuando quieres forjar, un mundo mejor
      DO      LA
hay paz en tu corazón.

        RE            SIm
Más allá, del rencor                       
   SOL                  RE
de las lágrimas y el dolor       
            LA     SIm
brilla la luz, del amor       
    SOL             LA
dentro de cada corazón.
        RE            SIm
Ilusión, Navidad
   SOL                  RE
pon tus sueños a volar,
            LA     SIm
siembra paz brinda amor
    SOL             LA
que el mundo entero pide más

Final
e|---2-4/5---4/5-------7-9-10-9-7------------------------------------------|
B|---------5-----3.--7-------------10-6/7-----------------10-8-7-----------|
G|-2---------------------------------------9-7-9-7-7-7..---------7----7..--|
D|-----------------------------------------------------------------10------|
A|-------------------------------------------------------------------------|
E|-------------------------------------------------------------------------|
Este fichero es trabajo propio de su transcriptor y representa su interpretación personal de la canción. El material contenido en esta página es
para exclusivo uso privado, por lo que se prohibe su reproducción o retransmisión, así como su uso para fines comerciales.
© LaCuerda.net · Aviso Legal · Privacidad