Tablatura para Guitarra de Gipsy Kings: Hotel California
Conexión · Inscripción
Letras y Acordes
Pantalla Completa
Imprimir
Versión Texto
Añadir Favorito
Otras Versiones

Mostrar Diagramas
Desfile Automático
Manipular Acordes
Formato del Texto

Gipsy Kings
Hotel California(TAB)
calidad:
giki0323
AUTOR: Don Felder, Glenn Frey, Don Henley
ALBUM: Volare!: The Very Best of the Gipsy Kings
Enviado por ricardo
Esta es la introducción de Hotel California, espero que les
guste y sigan siempre con la guitarra. Ricardo.

(X)=  tocar como acorde
 h =  tocar dando un toque
 A =  jalar hacia Abajo(no se puede transcribir bien aqui)
Intro:

    SIm                                  (X)
1|---2------------------------------------2----------------------------
2|---3------------------3-5-7h8h7-5/7-7---2-------3-2------------------
3|---4---4-4h6h43--4-6--------------------2---2-4-----2-2h4-2----------
4|---4------------------------------------2-------------------4a2-0/2-2
5|---2------------------------------------0----------------------------
6|---2------------------------------------0----------------------------


                                (cada vez mas rápido)
   (X)                               -----------------(8 veces)
1|--0-------0-----0-----0-----0-----------7-------10---------------
2|--0------0-----0-----0-----0----------8---8---8----8-------------
3|--0-----0-----2-----4-----7---------9-------9--------------------
4|--2----2-----4-----5-----9---------------------------------------
5|-----------------------------------------------------------------
6|-----------------------------------------------------------------


                                           (X)
1|-------7--6--7--9--10--9--10-12/14--14----2----
2|----8-------------------------------------2----
3|--9---------------------------------------3----
4|-----------------------------------------------
5|-----------------------------------------------
6|-----------------------------------------------

       SIm                  FAM#                  LA 
1|-------------2----------------------2----------------0-----------
2|-----------3---3------------------2---2------------2---2---------
3|---------4-------4---4----------3----------------2-------2---2---
4|-------4-----------4----------4----------------2-----------2-----
5|-----2----------------------4----------------0-------------------
6|---2----------------------2----------------0---------------------


       MI                   SOL                  RE 
1|-------------0------------------3-----------------2--------------
2|-----------0---0--------------3---3-------------3---3-------3----
3|---------1------------------0-----------------2-------2---2------
4|-------2------------------0-----------------0-----------0--------
5|-----2------------------0-------------0-2-0----------------------
6|---0--------------0-2-3------------------------------------------


       MIm                  FAM#
1|-------------0------------------2-----------------
2|-----------0---0--------------2---2---2-----------
3|---------0------------------3-------3-------------
4|-------2------------------4-----------------------
5|-----2------------------4-------------------------
6|---0--------------0-1-2---------------------------


1|-------------------------------------------0----
2|------------------------------------------------
3|---------------------------------------1--------
4|-------------------------------------0---0------
5|--5--7--9--7-5h7h5--4---4--5--7/2--2------------
6|------------------------------------------------

1|------------------------------------------------
2|------------------------------------------------
3|--------------1/4-------------------------------
4|--2--4--5--2------5------2--4--5-4h5h4h2h4------
5|------------------------------------------------
6|------------------------------------------------


    SIm              FAM#          LA                MI 
1|---2----2--2--2-----2----2--2-----0----0--0--0-----0----0--0---
2|---3--3--3--3--3----2--2--2--2----2--2--2--2--2----0--0--0--0--
3|---4---4--4--4------3---3--3------2---2--2--2------1---1--1----
4|---------------------------------------------------------------
5|---2------------------------------0----------------------------
6|--------------------2------------------------------0-----------


       SOL                RE               MIm             FAM#
1|-------3----3--3---------2----2--2--2-----0---0--0--------2----2--2--
2|-------3--3--3--3--------3--3--3--3--3----0-0--0--0-------2--2--2--2-
3|-------0---0--0----------2---2--2--2------0--0--0---------3---3--3---
4|-------------------------0-------------------------------------------
5|--------------------0-2-0--------------------------------------------
6|---0-2-3----------------------------------0-----------0-1-2----------


nota: debes escuchar la canción  para darle el ritmo deseado

payasito86@hotmail.com :)
Envía el tono de "Hotel California" a tu celular/móvil
Este fichero es trabajo propio de su transcriptor y representa su interpretación personal de la canción. El material contenido en esta página es
para exclusivo uso privado, por lo que se prohibe su reproducción o retransmisión, así como su uso para fines comerciales.
© LaCuerda.net · Aviso Legal · Privacidad