Letra y Acordes de Fito Paez: Yo te amo
Conexión · Inscripción
Letras y Acordes
Pantalla Completa
Imprimir
Versión Texto
Añadir Favorito
Otras Versiones

Mostrar Diagramas
Desfile Automático
Manipular Acordes
Formato del Texto

Fito Paez
Yo te amo
calidad:
fito2231
AUTOR: Fito Paez
ALBUM: Yo te amo (2013)
Enviado por GUstavo
Loop:
e|----------------------|
B|------66----6-----66--|
G|------55----5-----55--|
D|--33----33----33----3-|
A|----------------------|
E|----------------------|

Intro:  FA       REm

e|--1-------1---------1--|
B|----1---1---1----------|
G|---------------3-2-----|
D|-----------------------|X2
A|-----------------------|
E|-----------------------|

   FA                      DO
  Ella fue la espía de mi corazón

   SIb      DO             FA
  eso fue lo que me mató de ella.

   FA                           DO
  Ella puso fin me dijo: "tu enemigo sos vos"

    SIb                    DO                   REm   (DO)
  Y subimos a un globo buscando solo las estrellas.


              SIb
  Voy a ser feliz

    DO            FA
  debajo de sus sábanas

             SIb
  Le voy a pedir

          DO                    FA
  que me haga un huequito en su cama

               SIb
  Va a decir que SI

          DO              REm
  porque tengo la pócima mágica

                SOL     DO     FA
  las palabras clásicas: Yo te AMO.


     FA           REm

e|--1----1---1---------1-|
B|----1---1-1-1----------|
G|---------------3-2-----|
D|-----------------------|X2
A|-----------------------|
E|-----------------------|


  Cuando nos despedimos en el ascensor
  según su versión ella no había hecho nada
  que todo fue mi culpa, que el bandido fui yo
  mientras me besaba agarradita a mi corbata.


  Me dejaste allí,
  me dejaste de pago,
  me clavaste ahí,
  sonriendo medio loco y borracho
  Y cuando llegaste a tu casa me escribiste ¡Qué plato!
  (Que simpática pensé)
  Yo le respondí al toque: Yo Te AMO.



              SIb
  Voy a ser feliz

    DO            FA
  debajo de sus sábanas

             SIb
  Le voy a pedir

          DO                    FA
  que me haga un huequito en su cama

               SIb
  Va a decir que SI

          DO              REm
  porque tengo la pócima clásica

                SOL     DO     FA
  las palabras mágicas: Yo te AMO.

  NO FALLAN...
  YO TE AMO
Final:
   FA   MIb       FA

e|-----------------------------|
B -----------------------------|
G|-----------------------------|
D|-3---01----01010-3-----------|
A|-3--3------------3-----------|
E|-----------------------------|
Envía el tono de "Yo te amo" a tu celular/móvil
Este fichero es trabajo propio de su transcriptor y representa su interpretación personal de la canción. El material contenido en esta página es
para exclusivo uso privado, por lo que se prohibe su reproducción o retransmisión, así como su uso para fines comerciales.
© LaCuerda.net · Aviso Legal · Privacidad