Tablatura para Guitarra de Fito Paez: 11 y 6
Conexión · Inscripción
Letras y Acordes
Pantalla Completa
Imprimir
Versión Texto
Añadir Favorito
Otras Versiones

Mostrar Diagramas
Desfile Automático
Manipular Acordes
Formato del Texto


Fito Paez
11 y 6(TAB)
calidad:
fito0016
AUTOR: Fito Paez
ALBUM: Euforia (1985)
Enviado por Rodrigo
Esta version es el piano pero en guitarra.
Espero que les guste.


 e|-----------------------------------------2--3---7---------|
 b|---------------3--1--0--1--0----------------------8----0--|
 g|----------0--2----------------2--0------------------9-----|
 d|--0--2--4----------------------------4--5-----------------|
 a|----------------------------------------------------------|
 E|----------------------------------------------------------|

 e|--------------3-------------------------------------------|
 b|--3--4--3-----------0-1-0---------------------------------|
 g|-----------5-----5--------2-0-----------------------------|
 d|-------------------------------2----5-4-5-4-5-4--2--1-----|
 a|----------------------------------------------------------|
 E|----------------------------------------------------------|

 e|--------------------------------------------------2--3--|
 b|---------------3-----1---0--1--0------------------------|
 g|----------0-2--------1-------------2---0----------------|
 d|-0--2--4-------------2-------------1--------4--5--0-----|
 a|-----------------------------------2--------------------|
 E|---------------------2----------------------0-----------|


 e|--7----------------|
 b|--8--8-----0-------|
 g|--9-----9----------|
 d|-------------------|
 a|-------------------|
 E|--9----------------|

 e|----------------3----------------------------------------------|
 b|---3--4--3-----------0--1--0-----------------------------------|
 g|------------5----------------2--0------------------------------|
 d|----------------------------------2----5--4--5--4--5--4--2--1--|
 a|---3------------2----0-----------------5-----------------------|
 E|---------------------------------------------------------------|



Gracias
Junio 1 del 2016
Este fichero es trabajo propio de su transcriptor y representa su interpretación personal de la canción. El material contenido en esta página es
para exclusivo uso privado, por lo que se prohibe su reproducción o retransmisión, así como su uso para fines comerciales.

© LaCuerda.net · Aviso Legal · Privacidad