Tablatura para Guitarra de Fito Paez: 11 y 6
Conexión · Inscripción
Letras y Acordes
Pantalla Completa
Imprimir
Versión Texto
Añadir Favorito
Otras Versiones

Mostrar Diagramas
Desfile Automático
Manipular Acordes
Formato del Texto


Fito Paez
11 y 6(TAB)
calidad:
fito0013
AUTOR: Fito Paez
ALBUM: Euforia (1985)
Enviado por Cesar
Author/Artist: Fito Paez
Title: 11 y 6
Album: Euforia
Transcribed by: Cesar Andres Forero Diaz
Email: okter@hotmail.com

Aca va la version corregida
de esta hermosa cancion espero que la disfruten...

------------10-8-7-8-7------------9-10-|-14|-8-7-5-7-8-7--10-8-
-----7-8-10------------10-8---7-8------|----|------------10-----
-7-9-----------------------------------|----|-------------------
---------------------------------------|----|-------------------
---------------------------------------|----|-------------------
---------------------------------------|----|-------------------

-7-8-7-------------------------------|-|-|-|--------------------
-------10--8-7--8-7-8-7-8-7----------|-|-|-|--------------------
-----------------------------9--7----|-|-|-|--------------------
-------------------------------------|-|-|-|--------------------
-------------------------------------|-|-|-|--------------------
-------------------------------------|-|-|-|--------------------

Se repite una vez

------------10-8-7-8-7------------9-10-|-14|-8-7-5-7-8-7--10-8-
-----7-8-10------------10-8---7-8------|----|------------10-----
-7-9-----------------------------------|----|-------------------
---------------------------------------|----|-------------------
---------------------------------------|----|-------------------
---------------------------------------|----|-------------------

-7-8-7-------------------------------|-|-|-|--------------------
-------10--8-7--8-7-8-7-8-7----------|-|-|-|--------------------
-----------------------------9--7----|-|-|-|--------------------
-------------------------------------|-|-|-|--------------------
-------------------------------------|-|-|-|--------------------
-------------------------------------|-|-|-|--------------------

-3------------------------3-------------------------------------
-0------------------------1-------------------------------------
-0------------------------2-------------------------------------
-0------------------------0-------------------------------------
-2------------------------0-------------------------------------
-3------------------------0-------------------------------------

Espero que les guste...

Suerte....
Este fichero es trabajo propio de su transcriptor y representa su interpretación personal de la canción. El material contenido en esta página es
para exclusivo uso privado, por lo que se prohibe su reproducción o retransmisión, así como su uso para fines comerciales.

© LaCuerda.net · Aviso Legal · Privacidad