Tablatura para Guitarra de Fito & Fitipaldis: Soldadito Marinero
Conexión · Inscripción
Letras y Acordes
Pantalla Completa
Imprimir
Versión Texto
Añadir Favorito
Otras Versiones

Mostrar Diagramas
Desfile Automático
Manipular Acordes
Formato del Texto


Fito & Fitipaldis
Soldadito Marinero(TAB)
calidad:
f_fi0193
AUTOR: Fito Cabrales
ALBUM: desconocido
Enviado por lledias123
Hola. Aqui os presento esta cación con los ritmos y todo.
Espero que os guste.

Intro 1:
|-------------3---------2---------2------------|
|-------------3---------3---------3----------2-|
|-------------0---------2---------2--------2-2-|
|--2/4^2-0----0---------0---0h4---4---0h4-4--2-|
|-------------2---0h2------------------------0-|
|-------------3--------------------------------|

|-------------3---------2---------2-------------------2-|
|-------------3---------3---------3---------2---------3-|
|-------------0---------2---------2---------2---------2-|
|--2/4^2-0----0---------0---0h4---4---0h4---2--2br-0--0-|
|-------------2---0h2-----------------------0-----------|
|-------------3-----------------------------------------|

El ritmo del verso es el siguiente(lo he hecho como he podido aqui).
Se supone que son negras, corcheas y semicorcheas.
n=se toca hacia abajo  v=se toca hacia arriba  ()=no se toca.
n(vnv) n(v)n v
|      |   | |
|      |   | |    X2 Cada compás
|      |   | |
<      <   < <

|La Sol|Re Re|Re Re|La La|Sol Sol|Re Re|Re La|Re Re|

Ahora va el estribillo que es igual en ritmo a excepción de
un acorde que tiene otro ritmo.

n(vnv) n(v)n  v  (n)v(n)v  (n)v n v  |---------| El acorde DSUS2 se
|      |---|--|   |-|-|-|   |-|-|-|  |----3----| pone cuando se da
|      |   |--|   |-|-|-|   |-|-|-|  |----2----| el primer golpe
|      |   |  |   | | | |   | | | |  |---------| hacia arriba.
<      <   <  <   < < < <   < < < <  |---------|
RE            DSUS2                  |---------|
                                        DSUS2
|----2----|
|----3----|
|----4----|
|----4----|
|----2----|
|---------|
    B 

Los acordes aqi son los siguientes:

|Sol Sol|Re y DSUS2|BM BM|La La|Sol Sol|Re Re|Re la|Re Re|

Intro 2:
|-------------3-------------2-------------2-----2-|
|-------------3-------------3-------------3--2--3-|
|-------------0---2/4^2-----2-------------2--2--2-|
|--2/4^2-0----0---------4---4---2/4^2-0---0--2--0-|
|-------------2------------------------------0----|
|-------------3-----------------------------------|


El siguiente verso y estribillo son iguales que los anteriores.


Solo:
|-----------------------------------------------------------/7-|
|--10-----------------10b(12)-10~-------7----------------------|
|---9b(11)r(9)-9-7-0-------------------7-7h9----6b(7)r(6)-4----|
|----------------------------------7h9--------4----------------|
|--------------------------------------------------------------|
|--------------------------------------------------------------|

|---------------------10-12-10-----------------------------------|
|--7-7--10-9-8~---/12----------12-10-12-10~----------------------|
|---------------------------------------------------9b(11)--9--7-|
|---------------------------------------------7-9-7--------7--7--|
|----------------------------------------------------------------|
|----------------------------------------------------------------|


El último verso tiene el mismo ritmo que los otros versos pero es
con los siguientes acordes:
|Sol Sol|Re Re|La La|BM BM|   X3 Después de esto se hace |Sol Sol|


Fin:
|---------14-12-----------14------|       Estas notas(salvo el 12)
|-----15--------------15----15----|       son como poner el acorde
|---14--14----------14--14--------|    X2 de Re en el traste 14.
|--0---------------0--------------|       Al tocar esta parte
|---------------------------------|       intentar no levantar
|---------------------------------|       los dedos.

Letra:
Él camina despacito que las prisas no son buenas

En su brazo dobladita con cuidado la chaqueta

Luego pasa por las calles donde los chavales juegan

Él también quiso ser niño pero le pilló la guerra


Soldadito marinero conociste a una sirena

De esas que dicen “te quiero” si ven la cartera llena

Escogiste a la más guapa y a la menos buena

Sin saber como ha venido te ha cogido la tormenta


Él quería cruzar los mares y olvidar a su sirena

La verdad no fue difícil cuando conoció a Mariela

Que tenía los ojos verdes y un negocio entre las piernas

Hay que ver que puntería no te arrimas a una buena


Soldadito marinero conociste a una sirena

De esas que dicen “te quiero” si ven la cartera llena

Escogiste a la más guapa y a la menos buena

Sin saber como ha venido te ha cogido la tormenta.


Después de un invierno malo, una mala primavera.

Dime por qué estás buscando una lágrima en la arena.


Leyenda:
/=Slide hacia abajo.
^=Slide hacia arriba.
h=Hammer on(ligadura).
b=Bending.
r=Relase bending(de arriba hacia abajo).
()en ritmos=Se mueve la mano pero no se toca.
()en bendings=Nota hasta la que se sube o se baja el bending.
~=Vibrato.
n=El acorde se toca hacia abajo.
v=El acorde se toca hacia arriba.

Adiós, hasta otra. Yo creo que es así y la toco así, pero para
alguna corrección informenme en albertorock81@yahoo.es
Este fichero es trabajo propio de su transcriptor y representa su interpretación personal de la canción. El material contenido en esta página es
para exclusivo uso privado, por lo que se prohibe su reproducción o retransmisión, así como su uso para fines comerciales.

© LaCuerda.net · Aviso Legal · Privacidad