Letra y Acordes de Fito & Fitipaldis: Me equivocaría otra vez
Conexión · Inscripción
Letras y Acordes
Pantalla Completa
Imprimir
Versión Texto
Añadir Favorito
Otras Versiones

Mostrar Diagramas
Desfile Automático
Manipular Acordes
Formato del Texto

Fito & Fitipaldis
Me equivocaría otra vez
calidad:
f_fi0362
AUTOR: Fito & Fitipaldis  corregir
ALBUM: Por la boca vive el pez (2006)
Enviado por tininmartinez
INTRO: Gm

e |------------------||      ---10-|
B |------------------||      ---8--|
G |---------------0--||      ---7--|
D |--------------0---||      ------|
A |1-0---------------||      ------|
E |----1//3----------||  x2  ------|


1.                                               Bb
Se torció el camino, tú ya sabes que no puedo volver
Dm                    F                     Gm
Son cosas del destino, siempre me quiere morder
                                        Bb
El horizonte se confunde con un negro telón…
Dm                 F                      Gm
y puede ser como decir que se acabó la función.

2.
Cm                 F                   Gm
Ha sido divertido, me equivocaría otra vez
Bb                                            F
quisiera haber querido lo que no he sabido querer
Eb                                               Bb
¿ Quieres bailar conmigo ? Puede que te pise los pies !!
F                                     Eb
No soñaré sólo porque me he quedao dormido

EST:
Bb                                   F
No voy a despertarme porque salga el sol
Eb               F                    Gm
Ya sé llorar una vez por cada vez que río
C                Eb        F                 Gm
No sé restar, no sé restar tu mitad a mi corazón.

e |-------------------------------||
B |-------------------------------||
G |-------------------------------||
D |-------------------------------||
A |--------3-5--------------------||
E |-3--5-6--------3--5-6-5---1--3-|| x2

1. Puede ser que la respuesta sea no preguntarse por qué?
Perderse por los bares donde se bebe sin sed
Virgen de la locura, nunca más te voy…. a rezar
que me he enterao!!... de los pecados que me quieres quitar

2. Será más divertido cuando no me toque perder.
Sigo apostando al 5 y cada 2x3 sale 6.
Yo bailaría contigo, pero es que estoy sordo de un pié.
No soñaré sólo porque me he quedao dormido.

No voy a despertarme porque salga el sol.
Ya sé llorar una vez por cada vez que río.
No sé restar, no sé restar tu mitad a mi corazón.
e |-------------------------------------------------------||
B |-------------------------------------------------------||
G |----------------5-7--------7-8-7-7-5//77//5------------||
D |----------5-7-8------------------7-----------//8-7-3//5||
A |--------5-----------8----8------------------8----------||
E |-3--5-6------------------------------------------------||

e |----------------------15-------------------6-----------||
B |----8--------11-----11-----8-6-------------6-6//8-6----||
G |---7-------12---//12-----------7-5------7--------------||
D |//8----//12------------------------8-5-8---------------||
A |-------------------------------------------------------||
E |-------------------------------------------------------||

Cm                 F                   Gm
Ha sido divertido, me equivocaría otra vez
Bb                                            F
quisiera haber querido lo que no he sabido querer
Eb                                               Bb
¿ Quieres bailar conmigo ? Puede que te pise los pies !!
F                                     Eb
No soñaré sólo porque me he quedao dormido

Bb                                   F
No voy a despertarme porque salga el sol
Eb               F                    Gm
Ya sé llorar una vez por cada vez que río
C                Eb        F                 Gm
No sé restar, no sé restar tu mitad a mi corazón.


(Final cuan intro)



Valencia, 20/09/06
Apa esa Bullanguera!! M&CH :P
tininmartinez@hotmail.com
Envía el tono de "Me equivocaría otra vez" a tu celular/móvil
Este fichero es trabajo propio de su transcriptor y representa su interpretación personal de la canción. El material contenido en esta página es
para exclusivo uso privado, por lo que se prohibe su reproducción o retransmisión, así como su uso para fines comerciales.
© LaCuerda.net · Aviso Legal · Privacidad