Tablatura para Guitarra de Fito & Fitipaldis: Las nubes de tu pelo
Conexión · Inscripción
Letras y Acordes
Pantalla Completa
Imprimir
Versión Texto
Añadir Favorito
Otras Versiones

Mostrar Diagramas
Desfile Automático
Manipular Acordes
Formato del Texto

Fito & Fitipaldis
Las nubes de tu pelo(TAB)
calidad:
f_fi0203
AUTOR: Fito Cabrales
ALBUM: Lo mas lejos a tu lado (2003)
Enviado por Alejandro
INTRO Y VERSO:
       C                G                 D
E|--------------------------------------------------------------|
B|--------------------------------------------------------------|
G|----------0------0--0---0------0--0-------------0-2-2-0-0-----|
D|--2-2-0-2---2-0-2-------------------0-4-0-4-4-0---0-0-----4-4-|
A|--3-3-3-3-3-3-------------0-----------------------------------|
E|-------------------3---3---3-3---3----------------------------|

      Em                      C               D       Em
E|------------------------|-------------------------------------------|
B|------------------------|-------------------3-0---------------------|
G|---------------0--------|---------0-----2-2----------------0------0-|
D|--2-2-0-2-0-2----0-0-2-2|-2-2-0-2----0----------2-2-2-0-2----2-0-2--|
A|--2-2---2---2-----------|-3-3-3-3-3-------------2-2-----2--2-2------|
E|------------0-----------|-----------------------0-------------------|

      G                 B7
E|------------------------------(2)-|
B|------------------------------(0)-|
G|----0---0----2---2-2-2-2-2-2--(2)-|
D|----0---0----1---1-1-1-1-1-1--(1)-|
A|-----------2---2-------2-2-2--(2)-|
E|--3--3-3--------------------------|

se repite hasta el estribillo con pequeñas variaciones.

EST:
       C         D              Em
E|----------------------------------------|
B|----1---1------2---2------8---8--8--8---|
G|----0---0------3---3------9---9--9---9--|
D|-----------0-0---0--------------------9-|
A|--3---3---------------7-7---7---7--7----|
E|----------------------------------------|


      C        B7            Em
E|-------------------------------7---|
B|----1--1---------------8-8--8---8--|
G|----0--0-----2--2------9-9--9----9-|
D|-------------1--1------------------|
A|--3---3---2-2--2---7-7--7--7--7----|
E|-----------------------------------|


     C         B7        Em              C              B7
E|------------------------------------------------------------|
B|---1--1----------------------------1--1--1--1---------------|
G|---0--0-----2--2---0--0--0--0------0--0--0--0----2--2-2-2-2-|
D|------------1--1---2--2--2---2-------------------1--1-1-1-1-|
A|--3--3---2-2--2---------------2---3--3--3--3---2---2--2-2-2-|
E|------------------0--0--0--0--------------------------------|

SOLO: (con el estribillo)

E|--------------------------------------------------------------|
B|--------------------------------------------------------------|
G|---7-9-7------------------------------------------------------|
D|--9-------7b------9-7-10-9---------9---------------0-------0--|
A|-------------7s9s7---------10-7------10-----------------------|
E|-------------------------------10----------3-3-3-3---3-2-2---2|

E|--------------------------------------------------------------------|
B|--------------------------------------------------------------------|
G|---7-9-7------------------------------------------------------------|
D|--9------7b-------9-7-------9-7-------------9------------0------0---|
A|------------7s9s7-----7s9s7-----9-7----7------10--------------------|
E|------------------------------------10---10------3-3-3-3---3-2-2--2-|

E|---------2-3-4-------------------2-3-4-------------------------|
B|---------------2-3-4-------------------2-3-4-------------------|
G|--2-2-2--------------1-2-3--2-2-2-----------1-2-3--2-2-2-2-2-2-|
D|--1-1-1---------------------1-1-1------------------1-1-1-1-1-1-|
A|--2-2-2---------------------2-2-2------------------2-2-2-2-2-2-|
E|---------------------------------------------------------------|

ahora se repite el estribillo otra vez y acaba con el solo de nuevo.

sin duda una de las mejores canciones de fito cabrales.

saludos!
Envía el tono de "Las nubes de tu pelo" a tu celular/móvil
Este fichero es trabajo propio de su transcriptor y representa su interpretación personal de la canción. El material contenido en esta página es
para exclusivo uso privado, por lo que se prohibe su reproducción o retransmisión, así como su uso para fines comerciales.
© LaCuerda.net · Aviso Legal · Privacidad