Tablatura para Guitarra de Fito & Fitipaldis: Abrazado a la tristeza
Conexión · Inscripción
Letras y Acordes
Pantalla Completa
Imprimir
Versión Texto
Añadir Favorito
Otras Versiones

Mostrar Diagramas
Desfile Automático
Manipular Acordes
Formato del Texto


Fito & Fitipaldis
Abrazado a la tristeza(TAB)
calidad:
f_fi0373
AUTOR: Fito & Fitipaldis  corregir
ALBUM: desconocido
Enviado por Víctor
Hola buenas, esta es la primera canción que mando
y creo que no esta mal. La canción es muy buena y fácil
si sabes un poquillo de arpegiar y eso.
Esta es la versión que aparece en el disco de extrechinato y tú.
Bueno vamos al tema.

La cancion tiene cuatro acordes nada mas: Am Em Am Em C y D

Am
e/---------------3------2-2------------2/3--/
b/-------1-------------------------1-----------/
G/-----2---2--------------------------2--------/         X2
d/---2-------2------2---------2---------------/
a/----------------------------------------------/
e/----------------------------------------------/

Em
e/---------------------------------------------------/
b/-------------------0------------------------------/
G/---------0---------------2--2-----0--------------/     X2
d/------2-----2-------------------------------------/
a/---2-----------2------2--------2-----------------/
e/----------------------------------------0-3-2-0--/

Estas dos partes se repiten dos veces y luego viene esto:

C
e/---------------------------------------------------/
b/-----------------0--------------------------------/
g/---------0------------2--2-----0-----0----------/
d/------2----2-----------------------------2-------/
a/---3----------3----3--------3-----3-------------/
e/--------------------------------------------------/

D
e/-------------------------------------------------/
b/------------------0-----------------------------/
g/---------0--------------------------------------/
d/------4-----4----------7--7----5----4/5------/
a/---5-----------5----5--------5----5-----------/
e/------------------------------------------------/

Em
e/-------0-----------------------------------/
b/-------0------0---------------------------/
g/-------0------------2-2----0-------------/
d/-------2----------------------------------/
a/-------2---2-----2-------0---------------/
e/--0----0----------------------0-3-2-0---/

Bueno pues eso es todo. La letra no la pongo porque ya esta
en la otra transcripción de esta canción.jjj.
Para dudas, sugerencias, correcciones e incluso felicitaciones
esta es mi dirección manolitowevosfritos@hotmail.com
¡¡Hasta otra amigooouuuss!!
Este fichero es trabajo propio de su transcriptor y representa su interpretación personal de la canción. El material contenido en esta página es
para exclusivo uso privado, por lo que se prohibe su reproducción o retransmisión, así como su uso para fines comerciales.

© LaCuerda.net · Aviso Legal · Privacidad