Tablatura para Guitarra de Fito & Fitipaldis: Abrazado a la tristeza
Conexión · Inscripción
Letras y Acordes
Pantalla Completa
Imprimir
Versión Texto
Añadir Favorito
Otras Versiones

Mostrar Diagramas
Desfile Automático
Manipular Acordes
Formato del Texto


Fito & Fitipaldis
Abrazado a la tristeza(TAB)
calidad:
f_fi0372
AUTOR: Fito & Fitipaldis  corregir
ALBUM: desconocido
Enviado por Carlos
------------------------------------------------------------------------
-----------------------------5-----------5------------------------------
---------------7/---9----7-----------7----------------------------------
-9v--7---------7/---9--------------7--------7---------7--9--10v---7--9--
--------7------5/---7------------7----------7------7--------------------
-----------5--------------------------------5---------------------------


------------------------------------|-----------------------------------
------------------------------------|-----------------5-----------------
------------------------------------|-----7/---9---7--------------------
-7----------9---------------9-------|-7---7/---9---------7---7-----7----
---10-7-10-----9----7---10-----7/9--|-7---5/---7---------7------7-----7-
------------------------------------|-5------------------5--------------


-------------------------------------|----------------------------------
---------------------------5---0-----|----------------------------------
-------------7/---9----7-------------|-5------5/---7-------7/---9----5--
--7/9/10/14--7/---7------------------|-5------5/---7-------7/---9-------
-------------5/---7---------------7--|-3------3/---5-------5/---7-------
-------------------------------------|----------------------------------


------------------------------------------------------------------------
--7--0--------7--0---------------------------7-8-7----------------------
-----------5------------5--------5/-----7-----------7/9-----------------
------------------------3--------5/-----7------------------7/5/9v----7--
--------7-----------7---3--------3/-----5-------------------------------
------------------------------------------------------------------------


-------|----------------------------------------------------------------
-------|----------------------------------------------------------------
-------|----------------------------------------------------------------
--5----|------------7-----9-----10-----9--5--7/9--7/5/7/5------7/9/7--5-
-----7-|-5/--7---7-----7-----7------7----------------------7------------
-------|-3/--5----------------------------------------------------------


------------------------------------------------------------------------
-----------------------------------------------5---0----------5--0------
------------------------------------7/---9-7--------------7----------7--
-5/5/7/5---------------7/9--10--9---7/---9------------------------------
----------5/----7---7---------------5/---7------------7-----------------
----------3/----5-------------------------------------------------------


------------------------------------------------------------------------
---------------------------5--0-----8-7---------------------------------
-5--5/---7---7/----9----7----------------7--------7-----7-7----5---5/---
-5--5/---7---7/----9------------------------7/9------9---------5---5/---
-3--3/---5---5/----7------------7------------------------------3---3/---
------------------------------------------------------------------------


--------|---------------------------------------------------------|-----
--------|---------------------------------------------------------|-----
-7-7/-9-|---------------------------------------------------------|-----
-7-7/-9-|---------------------------------------------------------|-----
-5-5/-7-|-------------------------0-------0-0/2-2/0---0-0-2-0-----|-----
--------|-----------3/2/1/0---3-0---0-3-0-----------3---------3-0-|-----


---------------------------------------------------|--------------------
---------------------------------------------------|--------------------
---------------------------------------------------|--------------------
------5----7/9/7/5/7/5-----5-7-9-9/10-9/10/9-7/9/7-|--------------------
-5^7----7---------------7--------------------------|--------------------
---------------------------------------------------|--------------------


------------------------------5/7v-5----5-----|-------------------------
-----------------5-7/7^8v-7/5---------8---8-5-|-7/8-5-------------5/7---
-----4---4-7-7-4------------------------------|-------5---5/4/5-------7-
-5^7---5--------------------------------------|---------5-------5-------
----------------------------------------------|-------------------------
----------------------------------------------|-------------------------


------------------------------------------------------------------------
-10/8/7/8/7-----------------7/8/7------------------------------5--0-----
------------7-----------------------7---5-5/-7----7/---9---7------------
--------------7/9-5/7---7/9-------------5-3/-7----7/---9----------------
----------------------7-----------------3-3/-5----5/---7-------------7--
------------------------------------------------------------------------


----------------------------------------|------14-----------------------
-----5----------------------------------|------14-----------------------
-7---------7---7--7^--5-5/----7---7/--9-|-5----14------7/----9----------
-------------9--------5-3/----7---7/--9-|-5------------7/----9----------
----------------------3-3/----5---5/--7-|-3------------5/----7----------
----------------------------------------|-------------------------------
Este fichero es trabajo propio de su transcriptor y representa su interpretación personal de la canción. El material contenido en esta página es
para exclusivo uso privado, por lo que se prohibe su reproducción o retransmisión, así como su uso para fines comerciales.

© LaCuerda.net · Aviso Legal · Privacidad