Tablatura para Bajo de Extremoduro: La Vereda De La Puerta De Atrás
Conexión · Inscripción
Letras y Acordes
Pantalla Completa
Imprimir
Versión Texto
Añadir Favorito
Otras Versiones

Mostrar Diagramas
Desfile Automático
Formato del Texto

Extremoduro
La Vereda De La Puerta De Atrás(BAJ)
calidad:
extr0373
AUTOR: Iñaki Antón, Roberto Iniesta
ALBUM: Grandes Exitos y Fracasos: Episodio 1 (2002)
Enviado por ALEJANDRO
NOTA:

Espero y te ayude en algo esta tab.

Si necesitas una tab en especial, escríbeme o visita...

myspace.com/alejandrolauyola

             Q    E  E  Q    E  E     Q    E  E  Q    E  E
G||-------|------------------------|------------------------|
D||-------|------------------------|------------------------|
A||-------|--3----3--3--2----2--2--|--0----0--0-------------|
E||-------|------------------------|-------------3----0--3--|


  Q    E  E  Q    E  E     Q    E  E  Q    E  E
------------------------|------------------------|
------------------------|------------------------|
--0----0--0--0----0--0--|--3----3--3--2----2--2--|
------------------------|------------------------|


  Q    E  E  Q    E  E     Q    E  E  Q    E  E
------------------------|------------------------|
------------------------|------------------------|
--0----0--0-------------|--0----0--0--0----0--0--|
-------------3----0--3--|------------------------|


  Q    E  E  Q    E  E     E  E  E  E  H           W
------------------------|-----------------------|-------------------|
------------------------|-----------------------|-------------------|
------------------------|-----------0--L--------|--L----------------|
--1----1--1--3----3--3--|--3--3-----------------|-------------------|


  W                   W                   Q    E  E  Q    E  E
-------------------|-------------------|------------------------|
-------------------|-------------------|------------------------|
--L----------------|--L----------------|--3----3--3--2----2--2--|
-------------------|-------------------|------------------------|


  Q    E  E  Q    E  E     Q    E  E  Q    E  E
------------------------|------------------------|
------------------------|------------------------|
--0----0--0-------------|--0----0--0--0----0--0--|
-------------3----0--3--|------------------------|


  Q    E  E  Q    E  E     Q    E  E  Q    E  E
------------------------|------------------------|
------------------------|------------------------|
--3----3--3--2----2--2--|--0----0--0-------------|
------------------------|-------------3----0--3--|


  Q    E  E  Q    E  E     Q    E  E  Q    E  E
------------------------|------------------------|
------------------------|------------------------|
--0----0--0--0----0--0--|------------------------|
------------------------|--1----1--1--3----3--3--|


  E  E  E  E  H           E  E  E  E  E  E  E  E
-----------------------|--------------------------|
-----------------------|--------------------------|
-----------------------|--0--0--0--0--0--0--0--0--|
--1--1-----3--L--------|--------------------------|


  E  E  E  E  E  E  E  E     H        H           H        H
--------------------------|--------------------|--------------------|
--------------------------|--------------------|--------------------|
--0--0--0--0--0--0--0--0--|--0-----------------|--------------------|
--------------------------|-----------3--------|--1--------3--------|


  H        H           H        H           H        H
--------------------|--------------------|--------------------|
--------------------|--------------------|--------------------|
--0-----------------|--------------------|--0-----------------|
-----------3--------|--1--------3--------|-----------3--------|


  H        H           H        H           H        H
--------------------|--------------------|--------------------|
--------------------|--------------------|--------------------|
--------------------|--0-----------------|--------------------|
--1--------3--------|-----------3--------|--1--------3--------|


  H        H           H        H           H        H
--------------------|--------------------|--------------------|
--------------------|--------------------|--------------------|
--0-----------------|--------------------|--0-----------------|
-----------3--------|--1--------3--------|-----------3--------|


  H        H           H        H           H        H
--------------------|--------------------|--------------------|
--------------------|--------------------|--------------------|
--------------------|--0-----------------|--------------------|
--1--------3--------|-----------3--------|--1--------3--------|


  H        H           H        H           Q    E  E  Q     E   E
--------------------|--------------------|--------------------------|
--------------------|--------------------|--------------------------|
--0-----------------|--------------------|--3-------3--L----(3)--3--|
-----------3--------|--1--------3--------|--------------------------|


  Q    E  E  Q    Q       Q    E  Q.     E  E
-----------------------|-----------------------|
-----------------------|-----------------------|
--0-------0--L----3----|-----------------------|
-----------------------|--0-------0------0--0--|


  Q    E  Q.     E  E     Q    E  E  Q     E   E
-----------------------|--------------------------|
-----------------------|--------------------------|
-----------------------|--3-------3--L----(3)--3--|
--1-------1------1--x--|--------------------------|


  Q    E  E  Q    Q       Q    E  Q    E  E  E
-----------------------|------------------------|
-----------------------|------------------------|
--0-------0--L----3----|------------------------|
-----------------------|--0-------0----0--0-----|


  Q    E  Q.     E  E     W                   H        H
-----------------------|-------------------|--------------------|
-----------------------|-------------------|--------------------|
-----------------------|-------------------|--0-----------------|
--1-------1------1--1--|--L----------------|-----------3--------|


  H        H           H        H           H        H
--------------------|--------------------|--------------------|
--------------------|--------------------|--------------------|
--------------------|--0-----------------|--------------------|
--1--------3--------|-----------3--------|--1--------3--------|


  H        H           H        H           H        H
--------------------|--------------------|--------------------|
--------------------|--------------------|--------------------|
--0-----------------|--------------------|--0-----------------|
-----------3--------|--1--------3--------|-----------3--------|


  H        H           E  E  E  E  E  E  E  E
--------------------|--------------------------|
--------------------|--------------------------|
--------------------|--0--0--0--0--0--0--0--0--|
--1--------3--------|--------------------------|


  E  E  E  E  E  E  E  E     H        H           H        H
--------------------------|--------------------|--------------------|
--------------------------|--------------------|--------------------|
--0--0--0--0--0--0--0--0--|--0-----------------|--------------------|
--------------------------|-----------3--------|--1--------3--------|


  H        H           H        H           H        H
--------------------|--------------------|--------------------|
--------------------|--------------------|--------------------|
--0-----------------|--------------------|--0-----------------|
-----------3--------|--1--------3--------|-----------3--------|


  H        H           H        H           H        H
--------------------|--------------------|--------------------|
--------------------|--------------------|--------------------|
--------------------|--0-----------------|--------------------|
--1--------3--------|-----------3--------|--1--------3--------|


  Q    E  E  Q     E   E     Q    E  E  Q    Q
--------------------------|-----------------------|
--------------------------|-----------------------|
--3-------3--L----(3)--3--|--0-------0--L----3----|
--------------------------|-----------------------|


  Q    E  Q.     E  E     Q    E  Q.     E  E
-----------------------|-----------------------|
-----------------------|-----------------------|
-----------------------|-----------------------|
--0-------0------0--0--|--1-------1------1--x--|


  Q    E  E  Q     E   E     Q    E  E  Q    Q
--------------------------|-----------------------|
--------------------------|-----------------------|
--3-------3--L----(3)--3--|--0-------0--L----3----|
--------------------------|-----------------------|


  Q    E  Q    E  E  E     Q    E  Q.     E  E
------------------------|-----------------------|
------------------------|-----------------------|
------------------------|-----------------------|
--0-------0----0--0-----|--1-------1------1--1--|


  Q    E  E  Q     E   E     Q    E  E  Q    Q
--------------------------|-----------------------|
--------------------------|-----------------------|
--3-------3--L----(3)--3--|--0-------0--L----3----|
--------------------------|-----------------------|


  Q    E  Q.     E  E     Q    E  Q.     E  E
-----------------------|-----------------------|
-----------------------|-----------------------|
-----------------------|-----------------------|
--0-------0------0--0--|--1-------1------1--x--|


  Q    E  E  Q     E   E     Q    E  E  Q    Q
--------------------------|-----------------------|
--------------------------|-----------------------|
--3-------3--L----(3)--3--|--0-------0--L----3----|
--------------------------|-----------------------|


  Q    E  Q    E  E  E     Q    E  Q.     E  E     W
------------------------|-----------------------|-------------------|
------------------------|-----------------------|-------------------|
------------------------|-----------------------|-------------------|
--0-------0----0--0-----|--1-------1------1--1--|--L----------------|


-------------------|-------------------|-------------------|
-------------------|-------------------|-------------------|
-------------------|-------------------|-------------------|
-------------------|-------------------|-------------------|


-------------------|-------------------|-------------------|
-------------------|-------------------|-------------------|
-------------------|-------------------|-------------------|
-------------------|-------------------|-------------------|


                                          E  E  E  E  E  E  E  E
-------------------|-------------------|--------------------------|
-------------------|-------------------|--------------------------|
-------------------|-------------------|--------------------------|
-------------------|-------------------|--1--1--1--1--1--1--1--1--|


  E  E  E  E  E  E  E  E     E  E  E  E  E  E  E  E
--------------------------|--------------------------|
--------------------------|--------------------------|
--------------------------|--0--0--0--0--0--0--0--0--|
--3--3--3--3--3--3--3--3--|--------------------------|


  E  E  E  E  E  E  E  E     E  E  E  E  E  E  E  E
--------------------------|--------------------------|
--------------------------|--------------------------|
--2--2--2--2--2--2--2--2--|--------------------------|
--------------------------|--1--1--1--1--1--1--1--1--|


  E  E  E  E  E  E  E  E     E  E  E  E  E  E  E  E
--------------------------|--------------------------|
--------------------------|--------------------------|
--------------------------|--0--0--0--0--0--0--0--0--|
--3--3--3--3--3--3--3--3--|--------------------------|


  E  E  E  E  E  E  E  E     E  E  E  E  E  E  E  E
--------------------------|--------------------------|
--------------------------|--------------------------|
--2--2--2--2--2--2--2--2--|--------------------------|
--------------------------|--1--1--1--1--1--1--1--1--|


  E  E  E  E  E  E  E  E     E  E  E  E  E  E  E  E
--------------------------|--------------------------|
--------------------------|--------------------------|
--------------------------|--0--0--0--0--0--0--0--0--|
--3--3--3--3--3--3--3--3--|--------------------------|


  E  E  E  E  E  E  E  E     E  E  E  E  E  E  E  E
--------------------------|--------------------------|
--------------------------|--------------------------|
--2--2--2--2--2--2--2--2--|--------------------------|
--------------------------|--1--1--1--1--1--1--1--1--|


  E  E  E  E  E  E  E  E     E  E  E  E  E  E  E  E
--------------------------|--------------------------|
--------------------------|--------------------------|
--------------------------|--0--0--0--0--0--0--0--0--|
--3--3--3--3--3--3--3--3--|--------------------------|


  E  E  E  E  E  E  E  E     E  E  E  E  E  E  E  E
--------------------------|--------------------------|
--------------------------|--------------------------|
--2--2--2--2--2--2--2--2--|--------------------------|
--------------------------|--1--1--1--1--1--1--1--1--|


  E  E  E  E  E  E  E  E     E  E  E  E  E  E  E  E
--------------------------|--------------------------|
--------------------------|--------------------------|
--------------------------|--0--0--0--0--0--0--0--0--|
--3--3--3--3--3--3--3--3--|--------------------------|


  E  E  E  E  E  E  E  E     E  E  E  E  E  E  E  E
--------------------------|--------------------------|
--------------------------|--------------------------|
--2--2--2--2--2--2--2--2--|--------------------------|
--------------------------|--1--1--1--1--1--1--1--1--|


  E  E  E  E  E  E  E  E     E  E  E  E  E  E  E  E
--------------------------|--------------------------|
--------------------------|--------------------------|
--------------------------|--0--0--0--0--0--0--0--0--|
--3--3--3--3--3--3--3--3--|--------------------------|


  E  E  E  E  E  E  E  E     E  E  E  E  E  E  E  E
--------------------------|--------------------------|
--------------------------|--------------------------|
--2--2--2--2--2--2--2--2--|--0--0--0--0--0--0--0--0--|
--------------------------|--------------------------|


  E  E  E  E  E  E  E  E     E  E  E  E  E  E  E  E
--------------------------|--------------------------|
--------------------------|--------------------------|
--2--2--2--2--2--2--2--2--|--------------------------|
--------------------------|--1--1--1--1--1--1--1--1--|


  E  E  E  E  E  E  E  E     E  E  E  E  E  E  E  E
--------------------------|--------------------------|
--------------------------|--------------------------|
--------------------------|--0--0--0--0--0--0--0--0--|
--3--3--3--3--3--3--3--3--|--------------------------|


  E  E  E  E  E  E  E  E     E  E  E  E  E  E  E  E
--------------------------|--------------------------|
--------------------------|--------------------------|
--2--2--2--2--2--2--2--2--|--------------------------|
--------------------------|--1--1--1--1--1--1--1--1--|


  E  E  E  E  E  E  E  E     E  E  E  E  E  E  E  E
--------------------------|--------------------------|
--------------------------|--------------------------|
--------------------------|--0--0--0--0--0--0--0--0--|
--3--3--3--3--3--3--3--3--|--------------------------|


  E  E  E  E  E  E  E  E     E  E  E  E  E  E  E  E
--------------------------|--------------------------|
--------------------------|--------------------------|
--2--2--2--2--2--2--2--2--|--------------------------|
--------------------------|--1--1--1--1--1--1--1--1--|


  E  E  E  E  E  E  E  E     E  E  E  E  E  E  E  E
--------------------------|--------------------------|
--------------------------|--------------------------|
--------------------------|--0--0--0--0--0--0--0--0--|
--3--3--3--3--3--3--3--3--|--------------------------|


  E  E  E  E  E  E  E  E     E  E  E  E  E  E  E  E
--------------------------|--------------------------|
--------------------------|--------------------------|
--2--2--2--2--2--2--2--2--|--------------------------|
--------------------------|--1--1--1--1--1--1--1--1--|


  E  E  E  E  E  E  E  E     E  E  E  E  E  E  E  E
--------------------------|--------------------------|
--------------------------|--------------------------|
--------------------------|--------------------------|
--3--3--3--3--3--3--3--3--|--1--1--1--1--1--1--1--1--|


  E  E  E  E  E  E  E  E     E  E  E  E  E  E  E  E
--------------------------|--------------------------|
--------------------------|--------------------------|
--------------------------|--0--0--0--0--0--0--0--0--|
--3--3--3--3--3--3--3--3--|--------------------------|


  E  E  E  E  E  E  E  E     E  E  E  E  E  E  E  E
--------------------------|--------------------------|
--------------------------|--------------------------|
--2--2--2--2--2--2--2--2--|--------------------------|
--------------------------|--1--1--1--1--1--1--1--1--|


  E  E  E  E  E  E  E  E     E  E  E  E  E  E  E  E
--------------------------|--------------------------|
--------------------------|--------------------------|
--------------------------|--0--0--0--0--0--0--0--0--|
--3--3--3--3--3--3--3--3--|--------------------------|


  E  E  E  E  E  E  E  E     Q    E  Q.     Q
--------------------------|----------------------|
--------------------------|----------------------|
--2--2--2--2--2--2--2--2--|----------------------|
--------------------------|--1-------1------1----|


  Q    E  Q.     Q       Q    E  Q.     Q       Q    E  Q.     Q
----------------------|----------------------|----------------------|
----------------------|----------------------|----------------------|
----------------------|--0-------0------0----|--0-------0------0----|
--3-------3------3----|----------------------|----------------------|


  W                   W
-------------------|-------------------|-------------------|
-------------------|-------------------|-------------------|
-------------------|-------------------|-------------------|
--1----------------|--L----------------|-------------------|


-------------------||
-------------------||
-------------------||
-------------------||

NOTA:

Espero y te ayude en algo esta tab.

Si necesitas una tab en especial, escríbeme o visita...

myspace.com/alejandrolauyola

Duration Legend
---------------
W - whole
H - half
Q - quarter
E - 8th
S - 16th
T - 32nd
X - 64th
. - note dotted
|-n-|  - n-tuplets


Tablature Legend
----------------
L - tied note
x - dead note
g - grace note
(n) - ghost note
> - accentuded note
NH - natural harmonic
AH - artificial harmonic
TH - tapped harmonic
SH - semi harmonic
PH - pitch harmonic
h - hammer on
p - pull off
b - bend
br - bendRelease
pb - preBend
pbr - preBendRelease
brb - bendReleaseBend
n/ - tremolo bar dip
n - tremolo bar dive
-/n - tremolo bar Release up
/n - tremolo bar inverted dip
/n - tremolo bar return
-n - tremolo bar Release down
S - shift slide
s - legato slide
/ -  slide into from below or out of upwards
 -  slide into from above or out of downwards
~ - vibrato
W - wide vibrato
tr - trill
TP - tremolo picking
T - tapping
S - slap
P - pop
< - fade in
^ - brush up
v - brush down
Envía el tono de "La Vereda De La Puerta De Atrás" a tu celular/móvil
Este fichero es trabajo propio de su transcriptor y representa su interpretación personal de la canción. El material contenido en esta página es
para exclusivo uso privado, por lo que se prohibe su reproducción o retransmisión, así como su uso para fines comerciales.
© LaCuerda.net · Aviso Legal · Privacidad