Tablatura para Bajo de Ex: La voz de los 80
Conexión · Inscripción
Letras y Acordes
Pantalla Completa
Imprimir
Versión Texto
Añadir Favorito
Otras Versiones

Mostrar Diagramas
Desfile Automático
Formato del Texto

Ex
La voz de los 80(BAJ)
calidad:
exxx0041
AUTOR: Los prisioneros
ALBUM: Tributo a los prisioneros
Enviado por Sergio
Introducción

primero la guitarra y luego entra el bajo.

-1------------------------|
-2------------------------|
-3----66-77-99----66-77-99|bis
-4-77----------77---------|

Algo grande esta naciendo en la decada de los 80
-1-------------------------------------------------|
-2-----------------66-77-99----44-55-77------------|
-3----66-77-99--77----------55-------------44-55-77|
-4-77-----------------------------------55---------|

ya se siente ........
idem

intro:                                                 

coro:	si, la, sol#m, sol			
ya viene, la fuerza, la voz de los 80..la voz de los 80(fin coro)
-1----------------------------------------------------|
-2----------------------------------------------------|
-3----------------------------------------------------|
-4-77777770555555504444444403333333----444444443333333|

Escucha el murmullo, algo se siente venir.los......
-1----------------------------------------------------|
-2----------------------------------------------------|
-3---77-55------------------------------------77-55---|
-4-77-------55-----------------------------77-------55|

En plena edad del plas tico seremos fuerza.......
-1-------------------------------------------------|
-2-----------------66-77-99----44-55-77------------|
-3----66-77-99--77----------55-------------44-55-77|
-4-77-----------------------------------55---------|

no te conformes por mirar en los 80 tu voz es estelar  

-1-------------------------------------------------------------------------------|
-2----------------66-77-99---------44-55-77---44-55-77-----88-99-11----88-99-11-|
-3---66-77-99--77----------------55---------55-----------99----------99---------|    
-4-77----------------------------------------------------------------------------

  Tienes la fuerza, eres actor....principallllllll
-1------------------------------------------------------|
-2-----44-55-77-----44-55-77-----88-99-11----88-99-11---|
-3--55-----------55-----------99----------99------------
-4------------------------------------------------------


de las entañas de nuestas ciudades...........
-1-----------------------------------------|
-2-----------------------------------------|
-3-----------------------------------------|
-4--3333333--------------------555-----222-|

CORO:si, la, sol#m, sol

Fin.....es rápida.....termina en la III-6 o en la IV-7...
ustedes eligen.
-1----------------------------------------|
-2----------------------------------------|
-3----6-7-9--6-7-9---6-7-9---6-7-9-------6|
-4--7-------7------7-------7--------------|
Envía el tono de "La voz de los 80" a tu celular/móvil
Este fichero es trabajo propio de su transcriptor y representa su interpretación personal de la canción. El material contenido en esta página es
para exclusivo uso privado, por lo que se prohibe su reproducción o retransmisión, así como su uso para fines comerciales.
© LaCuerda.net · Aviso Legal · Privacidad